  0
SECTION
  2
HEADER
  9
$ACADVER
  1
AC1015
  9
$ACADMAINTVER
 70
     6
  9
$DWGCODEPAGE
  3
DOS932
  9
$INSBASE
 10
0.0
 20
0.0
 30
0.0
  9
$EXTMIN
 10
-135.546995
 20
-293.901968
 30
0.0
  9
$EXTMAX
 10
391.806141
 20
123.795431
 30
9.906
  9
$LIMMIN
 10
-135.546995
 20
-293.901968
  9
$LIMMAX
 10
391.806141
 20
123.795431
  9
$ORTHOMODE
 70
     0
  9
$REGENMODE
 70
     1
  9
$FILLMODE
 70
     1
  9
$QTEXTMODE
 70
     0
  9
$MIRRTEXT
 70
     1
  9
$LTSCALE
 40
10.0
  9
$ATTMODE
 70
     1
  9
$TEXTSIZE
 40
0.2
  9
$TRACEWID
 40
0.05
  9
$TEXTSTYLE
  7
Standard
  9
$CLAYER
  8
0
  9
$CELTYPE
  6
Continuous
  9
$CECOLOR
 62
   256
  9
$CELTSCALE
 40
1.0
  9
$DISPSILH
 70
     0
  9
$DIMSCALE
 40
1.0
  9
$DIMASZ
 40
1.40208
  9
$DIMEXO
 40
1.40208
  9
$DIMDLI
 40
0.38
  9
$DIMRND
 40
0.0
  9
$DIMDLE
 40
0.0
  9
$DIMEXE
 40
1.05156
  9
$DIMTP
 40
0.0
  9
$DIMTM
 40
0.0
  9
$DIMTXT
 40
3.5052
  9
$DIMCEN
 40
0.09
  9
$DIMTSZ
 40
0.0
  9
$DIMTOL
 70
     0
  9
$DIMLIM
 70
     0
  9
$DIMTIH
 70
     0
  9
$DIMTOH
 70
     0
  9
$DIMSE1
 70
     0
  9
$DIMSE2
 70
     0
  9
$DIMTAD
 70
     1
  9
$DIMZIN
 70
     0
  9
$DIMBLK
  1

  9
$DIMASO
 70
     1
  9
$DIMSHO
 70
     1
  9
$DIMPOST
  1

  9
$DIMAPOST
  1

  9
$DIMALT
 70
     0
  9
$DIMALTD
 70
     2
  9
$DIMALTF
 40
25.4
  9
$DIMLFAC
 40
1.0
  9
$DIMTOFL
 70
     0
  9
$DIMTVP
 40
0.0
  9
$DIMTIX
 70
     0
  9
$DIMSOXD
 70
     0
  9
$DIMSAH
 70
     0
  9
$DIMBLK1
  1

  9
$DIMBLK2
  1

  9
$DIMSTYLE
  2
Standard
  9
$DIMCLRD
 70
     7
  9
$DIMCLRE
 70
     7
  9
$DIMCLRT
 70
     7
  9
$DIMTFAC
 40
0.5
  9
$DIMGAP
 40
1.7526
  9
$DIMJUST
 70
     0
  9
$DIMSD1
 70
     0
  9
$DIMSD2
 70
     0
  9
$DIMTOLJ
 70
     1
  9
$DIMTZIN
 70
     0
  9
$DIMALTZ
 70
     0
  9
$DIMALTTZ
 70
     0
  9
$DIMUPT
 70
     0
  9
$DIMDEC
 70
     2
  9
$DIMTDEC
 70
     4
  9
$DIMALTU
 70
     2
  9
$DIMALTTD
 70
     2
  9
$DIMTXSTY
  7
Standard
  9
$DIMAUNIT
 70
     0
  9
$DIMADEC
 70
     0
  9
$DIMALTRND
 40
0.0
  9
$DIMAZIN
 70
     0
  9
$DIMDSEP
 70
     0
  9
$DIMATFIT
 70
     3
  9
$DIMFRAC
 70
     0
  9
$DIMLDRBLK
  1

  9
$DIMLUNIT
 70
     2
  9
$DIMLWD
 70
     0
  9
$DIMLWE
 70
     0
  9
$DIMTMOVE
 70
     0
  9
$LUNITS
 70
     2
  9
$LUPREC
 70
     4
  9
$SKETCHINC
 40
0.1
  9
$FILLETRAD
 40
0.0
  9
$AUNITS
 70
     0
  9
$AUPREC
 70
     0
  9
$MENU
  1
acad
  9
$ELEVATION
 40
0.0
  9
$PELEVATION
 40
0.0
  9
$THICKNESS
 40
0.0
  9
$LIMCHECK
 70
     0
  9
$CHAMFERA
 40
0.0
  9
$CHAMFERB
 40
0.0
  9
$CHAMFERC
 40
0.0
  9
$CHAMFERD
 40
0.0
  9
$SKPOLY
 70
     0
  9
$TDCREATE
 40
2459753.444652778
  9
$TDUCREATE
 40
0.000000000
  9
$TDUPDATE
 40
2459753.069525463
  9
$TDUUPDATE
 40
0.000000000
  9
$TDINDWG
 40
0.0000000000
  9
$TDUSRTIMER
 40
0.0000000000
  9
$USRTIMER
 70
     1
  9
$ANGBASE
 50
0.0
  9
$ANGDIR
 70
     0
  9
$PDMODE
 70
     0
  9
$PDSIZE
 40
0.0
  9
$PLINEWID
 40
0.0
  9
$SPLFRAME
 70
     0
  9
$SPLINETYPE
 70
     6
  9
$SPLINESEGS
 70
     8
  9
$HANDSEED
  5
420
  9
$SURFTAB1
 70
     6
  9
$SURFTAB2
 70
     6
  9
$SURFTYPE
 70
     6
  9
$SURFU
 70
     6
  9
$SURFV
 70
     6
  9
$UCSBASE
  2

  9
$UCSNAME
  2

  9
$UCSORG
 10
0.0
 20
0.0
 30
0.0
  9
$UCSXDIR
 10
1.0
 20
0.0
 30
0.0
  9
$UCSYDIR
 10
0.0
 20
1.0
 30
0.0
  9
$UCSORTHOREF
  2

  9
$UCSORTHOVIEW
 70
     0
  9
$UCSORGTOP
 10
0.0
 20
0.0
 30
0.0
  9
$UCSORGBOTTOM
 10
0.0
 20
0.0
 30
0.0
  9
$UCSORGLEFT
 10
0.0
 20
0.0
 30
0.0
  9
$UCSORGRIGHT
 10
0.0
 20
0.0
 30
0.0
  9
$UCSORGFRONT
 10
0.0
 20
0.0
 30
0.0
  9
$UCSORGBACK
 10
0.0
 20
0.0
 30
0.0
  9
$PUCSBASE
  2

  9
$PUCSNAME
  2

  9
$PUCSORG
 10
0.0
 20
0.0
 30
0.0
  9
$PUCSXDIR
 10
1.0
 20
0.0
 30
0.0
  9
$PUCSYDIR
 10
0.0
 20
1.0
 30
0.0
  9
$PUCSORTHOREF
  2

  9
$PUCSORTHOVIEW
 70
     0
  9
$PUCSORGTOP
 10
0.0
 20
0.0
 30
0.0
  9
$PUCSORGBOTTOM
 10
0.0
 20
0.0
 30
0.0
  9
$PUCSORGLEFT
 10
0.0
 20
0.0
 30
0.0
  9
$PUCSORGRIGHT
 10
0.0
 20
0.0
 30
0.0
  9
$PUCSORGFRONT
 10
0.0
 20
0.0
 30
0.0
  9
$PUCSORGBACK
 10
0.0
 20
0.0
 30
0.0
  9
$USERI1
 70
     0
  9
$USERI2
 70
     0
  9
$USERI3
 70
     0
  9
$USERI4
 70
     0
  9
$USERI5
 70
     0
  9
$USERR1
 40
0.0
  9
$USERR2
 40
0.0
  9
$USERR3
 40
0.0
  9
$USERR4
 40
0.0
  9
$USERR5
 40
0.0
  9
$WORLDVIEW
 70
     1
  9
$SHADEDGE
 70
     3
  9
$SHADEDIF
 70
    70
  9
$TILEMODE
 70
     1
  9
$MAXACTVP
 70
    16
  9
$PINSBASE
 10
0.0
 20
0.0
 30
0.0
  9
$PLIMCHECK
 70
     0
  9
$PEXTMIN
 10
1.000000E+20
 20
1.000000E+20
 30
1.000000E+20
  9
$PEXTMAX
 10
-1.000000E+20
 20
-1.000000E+20
 30
-1.000000E+20
  9
$PLIMMIN
 10
0.0
 20
0.0
  9
$PLIMMAX
 10
12.0
 20
9.0
  9
$UNITMODE
 70
     0
  9
$VISRETAIN
 70
     0
  9
$PLINEGEN
 70
     1
  9
$PSLTSCALE
 70
     0
  9
$TREEDEPTH
 70
  3020
  9
$CMLSTYLE
  2
Standard
  9
$CMLJUST
 70
     0
  9
$CMLSCALE
 40
1.0
  9
$PROXYGRAPHICS
 70
     0
  9
$MEASUREMENT
 70
     0
  9
$CELWEIGHT
370
     0
  9
$ENDCAPS
280
     0
  9
$JOINSTYLE
280
     0
  9
$LWDISPLAY
290
     0
  9
$INSUNITS
 70
     0
  9
$HYPERLINKBASE
  1

  9
$STYLESHEET
  1

  9
$XEDIT
290
     1
  9
$CEPSNTYPE
380
     0
  9
$PSTYLEMODE
290
     1
  9
$FINGERPRINTGUID
  2

  9
$VERSIONGUID
  2

  9
$EXTNAMES
290
     1
  9
$PSVPSCALE
 40
0.0
  0
ENDSEC
  0
SECTION
  2
CLASSES
  0
CLASS
  1
LWPOLYLINE
  2
AcDbPolyline
  3
AutoCAD 2000
 90
        0
280
     0
281
     1
  0
CLASS
  1
IMAGE
  2
AcDbRasterImage
  3
ISM
 90
      127
280
     0
281
     1
  0
CLASS
  1
OLE2FRAME
  2
AcDbOle2Frame
  3
AutoCAD 2000
 90
        0
280
     0
281
     1
  0
CLASS
  1
HATCH
  2
AcDbHatch
  3
AutoCAD 2000
 90
        0
280
     0
281
     1
  0
CLASS
  1
DICTIONARYVAR
  2
AcDbDictionaryVar
  3
AutoCAD 2000
 90
        0
280
     0
281
     0
  0
CLASS
  1
RASTERVARIABLES
  2
AcDbRasterVariables
  3
ISM
 90
        0
280
     0
281
     0
  0
CLASS
  1
IMAGEDEF
  2
AcDbRasterImageDef
  3
ISM
 90
        0
280
     0
281
     0
  0
CLASS
  1
IMAGEDEF_REACTOR
  2
AcDbRasterImageDefReactor
  3
ISM
 90
        1
280
     0
281
     0
  0
CLASS
  1
IDBUFFER
  2
AcDbIdBuffer
  3
AutoCAD 2000
 90
        0
280
     0
281
     0
  0
CLASS
  1
SPATIAL_FILTER
  2
AcDbSpatialFilter
  3
AutoCAD 2000
 90
        0
280
     0
281
     0
  0
CLASS
  1
XRECORD
  2
AcDbXrecord
  3
AutoCAD 2000
 90
        0
280
     0
281
     0
  0
CLASS
  1
SORTENTSTABLE
  2
AcDbSortentsTable
  3
AutoCAD 2000
 90
        0
280
     0
281
     0
  0
CLASS
  1
LAYER_INDEX
  2
AcDbLayerIndex
  3
AutoCAD 2000
 90
        0
280
     0
281
     0
  0
CLASS
  1
SPATIAL_INDEX
  2
AcDbSpatialIndex
  3
AutoCAD 2000
 90
        0
280
     0
281
     0
  0
CLASS
  1
OBJECT_PTR
  2
CAseDLPNTableRecord
  3
"ASE-LPNTableRecord"
 90
        1
280
     0
281
     0
  0
CLASS
  1
LAYOUT
  2
AcDbLayout
  3
AutoCAD 2000
 90
        0
280
     0
281
     0
  0
CLASS
  1
PLOTSETTINGS
  2
AcDbPlotSettings
  3
AutoCAD 2000
 90
        0
280
     0
281
     0
  0
CLASS
  1
ACDBDICTIONARYWDFLT
  2
AcDbDictionaryWithDefault
  3
AutoCAD 2000
 90
        0
280
     0
281
     0
  0
CLASS
  1
ACDBPLACEHOLDER
  2
AcDbPlaceHolder
  3
AutoCAD 2000
 90
        0
280
     0
281
     0
  0
CLASS
  1
VBA_PROJECT
  2
AcDbVbaProject
  3
acadvba
 90
        0
280
     0
281
     0
  0
CLASS
  1
WIPEOUT
  2
AcDbWipeout
  3
WipeOut|AutoCAD Express Tool|expresstools@autodesk.com
 90
      127
280
     0
281
     1
  0
CLASS
  1
WIPEOUTVARIABLES
  2
AcDbWipeoutVariables
  3
WipeOut|AutoCAD Express Tool|expresstools@autodesk.com
 90
        0
280
     0
281
     0
  0
CLASS
  1
RTEXT
  2
RText
  3
RText|AutoCAD Express Tool|expresstools@autodesk.com
 90
        0
280
     0
281
     1
  0
CLASS
  1
ARCALIGNEDTEXT
  2
AcDbArcAlignedText
  3
ATEXT|AutoCAD Express Tool|expresstools@autodesk.com
 90
        0
280
     0
281
     1
  0
ENDSEC
  0
SECTION
  2
TABLES
  0
TABLE
  2
VPORT
  5
7
100
AcDbSymbolTable
 70
     1
  0
VPORT
  5
15
100
AcDbSymbolTableRecord
100
AcDbViewportTableRecord
  2
*ACTIVE
 70
     0
 10
0.0
 20
0.0
 11
1.0
 21
1.0
 12
6.591288
 22
4.579184
 13
0.0
 23
0.0
 14
1.0
 24
1.0
 15
0.0
 25
0.0
 16
0.0
 26
0.0
 36
1.0
 17
0.0
 27
0.0
 37
0.0
 40
9.158369
 41
0.688564
 42
50.0
 43
0.0
 44
0.0
 50
0.0
 51
0.0
 71
     0
 72
   100
 73
     1
 74
     1
 75
     0
 76
     0
 77
     0
 78
     0
281
     0
 65
     0
110
0.0
120
0.0
130
0.0
111
1.0
121
0.0
131
0.0
112
0.0
122
1.0
132
0.0
345
0
346
0
 79
     0
146
0.0
  0
ENDTAB
  0
TABLE
  2
LTYPE
  5
4
100
AcDbSymbolTable
 70
     3
  0
LTYPE
  5
11
100
AcDbSymbolTableRecord
100
AcDbLinetypeTableRecord
  2
ByBlock
 70
    64
  3

 72
    65
 73
     0
 40
0.0
  0
LTYPE
  5
12
100
AcDbSymbolTableRecord
100
AcDbLinetypeTableRecord
  2
ByLayer
 70
    64
  3

 72
    65
 73
     0
 40
0.0
  0
LTYPE
  5
13
100
AcDbSymbolTableRecord
100
AcDbLinetypeTableRecord
  2
Continuous
 70
    64
  3
Solid line
 72
    65
 73
     0
 40
0.0
  0
ENDTAB
  0
TABLE
  2
LAYER
  5
2
100
AcDbSymbolTable
 70
     1
  0
LAYER
  5
14
100
AcDbSymbolTableRecord
100
AcDbLayerTableRecord
  2
0
 70
     0
 62
     7
  6
Continuous
290
     1
370
    -3
390
1D
  0
ENDTAB
  0
TABLE
  2
STYLE
  5
3
100
AcDbSymbolTable
 70
     1
  0
STYLE
  5
17
100
AcDbSymbolTableRecord
100
AcDbTextStyleTableRecord
  2
Standard
 70
     0
 40
0.0
 41
1.0
 50
0.0
 71
     0
 42
0.0
  3
FG教科書体NT-M
  4

1001
ACAD
1000
FG教科書体NT-M
1071
        0
  0
ENDTAB
  0
TABLE
  2
VIEW
  5
5
100
AcDbSymbolTable
 70
     0
  0
ENDTAB
  0
TABLE
  2
UCS
  5
6
100
AcDbSymbolTable
 70
     0
  0
ENDTAB
  0
TABLE
  2
APPID
  5
8
100
AcDbSymbolTable
 70
     2
  0
APPID
  5
16
100
AcDbSymbolTableRecord
100
AcDbRegAppTableRecord
  2
ACAD
 70
     0
  0
APPID
  5
26
100
AcDbSymbolTableRecord
100
AcDbRegAppTableRecord
  2
TOPsolid_Design
 70
     0
  0
ENDTAB
  0
TABLE
  2
DIMSTYLE
  5
9
100
AcDbSymbolTable
 70
     1
100
AcDbDimStyleTable
 71
     0
  0
DIMSTYLE
105
18
100
AcDbSymbolTableRecord
100
AcDbDimStyleTableRecord
  2
Standard
 70
     0
  3

  4

 40
1.0
 41
1.40208
 42
1.40208
 43
0.38
 44
1.05156
 45
0.0
 46
0.0
 47
0.0
 48
0.0
 71
     0
 72
     0
 73
     0
 74
     0
 75
     0
 76
     0
 77
     1
 78
     0
 79
     0
140
3.5052
141
0.09
142
0.0
143
25.4
144
1.0
145
0.0
146
0.5
147
1.7526
148
0.0
170
     0
171
     2
172
     0
173
     0
174
     0
175
     0
176
     7
177
     7
178
     7
179
     0
271
     2
272
     4
273
     2
274
     2
275
     0
276
     0
277
     2
278
    46
279
     0
280
     0
281
     0
282
     0
283
     1
284
     0
285
     0
286
     0
288
     0
289
     3
340
17
341
0
342
0
343
0
344
0
371
    -2
372
    -2
  0
ENDTAB
  0
TABLE
  2
BLOCK_RECORD
  5
1
100
AcDbSymbolTable
 70
     0
  0
BLOCK_RECORD
  5
A
100
AcDbSymbolTableRecord
100
AcDbBlockTableRecord
  2
*MODEL_SPACE
340
20
  0
BLOCK_RECORD
  5
B
100
AcDbSymbolTableRecord
100
AcDbBlockTableRecord
  2
*PAPER_SPACE
340
21
  0
ENDTAB
  0
ENDSEC
  0
SECTION
  2
BLOCKS
  0
BLOCK
  5
D
100
AcDbEntity
  8
0
390
0
100
AcDbBlockBegin
  2
*MODEL_SPACE
 70
     0
 10
0.0
 20
0.0
 30
0.0
  3
*MODEL_SPACE
  1

  0
ENDBLK
  5
E
100
AcDbEntity
  8
0
390
0
100
AcDbBlockEnd
  0
BLOCK
  5
F
100
AcDbEntity
 67
     1
  8
0
390
0
100
AcDbBlockBegin
  2
*PAPER_SPACE
 70
     0
 10
0.0
 20
0.0
 30
0.0
  3
*PAPER_SPACE
  1

  0
ENDBLK
  5
10
100
AcDbEntity
 67
     1
  8
0
390
0
100
AcDbBlockEnd
  0
ENDSEC
  0
SECTION
  2
ENTITIES
  0
LINE
  5
27
100
AcDbEntity
  8
0
390
0
  6
Continuous
 62
     7
100
AcDbLine
 10
107.775764
 20
-125.597084
 30
0.0
 11
112.528109
 21
-125.597084
 31
0.0
  0
LINE
  5
28
100
AcDbEntity
  8
0
390
0
  6
Continuous
 62
     7
100
AcDbLine
 10
112.528109
 20
-125.597084
 30
0.0
 11
112.652838
 21
-125.597084
 31
0.0
  0
LINE
  5
29
100
AcDbEntity
  8
0
390
0
  6
Continuous
 62
     7
100
AcDbLine
 10
112.652838
 20
-125.597084
 30
0.0
 11
114.466481
 21
-125.597084
 31
0.0
  0
LINE
  5
2A
100
AcDbEntity
  8
0
390
0
  6
Continuous
 62
     7
100
AcDbLine
 10
114.466481
 20
-125.597084
 30
0.0
 11
114.592179
 21
-125.597084
 31
0.0
  0
LINE
  5
2B
100
AcDbEntity
  8
0
390
0
  6
Continuous
 62
     7
100
AcDbLine
 10
114.592179
 20
-125.597084
 30
0.0
 11
115.068196
 21
-125.597084
 31
0.0
  0
LINE
  5
2C
100
AcDbEntity
  8
0
390
0
  6
Continuous
 62
     7
100
AcDbLine
 10
115.068196
 20
-125.597084
 30
0.0
 11
117.420385
 21
-125.597084
 31
0.0
  0
LINE
  5
2D
100
AcDbEntity
  8
0
390
0
  6
Continuous
 62
     7
100
AcDbLine
 10
117.420385
 20
-125.597084
 30
0.0
 11
117.538531
 21
-125.597084
 31
0.0
  0
LINE
  5
2E
100
AcDbEntity
  8
0
390
0
  6
Continuous
 62
     7
100
AcDbLine
 10
117.538531
 20
-125.597084
 30
0.0
 11
119.815932
 21
-125.597084
 31
0.0
  0
LINE
  5
2F
100
AcDbEntity
  8
0
390
0
  6
Continuous
 62
     7
100
AcDbLine
 10
119.815932
 20
-125.597084
 30
0.0
 11
119.906943
 21
-125.597084
 31
0.0
  0
LINE
  5
30
100
AcDbEntity
  8
0
390
0
  6
Continuous
 62
     7
100
AcDbLine
 10
119.906943
 20
-125.597084
 30
0.0
 11
121.554994
 21
-125.597084
 31
0.0
  0
LINE
  5
31
100
AcDbEntity
  8
0
390
0
  6
Continuous
 62
     7
100
AcDbLine
 10
121.554994
 20
-125.597084
 30
0.0
 11
121.635976
 21
-125.597084
 31
0.0
  0
LINE
  5
32
100
AcDbEntity
  8
0
390
0
  6
Continuous
 62
     7
100
AcDbLine
 10
121.635976
 20
-125.597084
 30
0.0
 11
125.5031
 21
-125.597084
 31
0.0
  0
LINE
  5
33
100
AcDbEntity
  8
0
390
0
  6
Continuous
 62
     7
100
AcDbLine
 10
125.5031
 20
-125.597084
 30
0.0
 11
124.851733
 21
-125.597084
 31
0.0
  0
LINE
  5
34
100
AcDbEntity
  8
0
390
0
  6
Continuous
 62
     7
100
AcDbLine
 10
124.851733
 20
-125.597084
 30
0.0
 11
124.230246
 21
-125.597084
 31
0.0
  0
LINE
  5
35
100
AcDbEntity
  8
0
390
0
  6
Continuous
 62
     7
100
AcDbLine
 10
124.230246
 20
-125.597084
 30
0.0
 11
123.405148
 21
-125.597084
 31
0.0
  0
LINE
  5
36
100
AcDbEntity
  8
0
390
0
  6
Continuous
 62
     7
100
AcDbLine
 10
123.405148
 20
-125.597084
 30
0.0
 11
122.028452
 21
-125.597084
 31
0.0
  0
LINE
  5
37
100
AcDbEntity
  8
0
390
0
  6
Continuous
 62
     7
100
AcDbLine
 10
109.971514
 20
-125.597084
 30
0.0
 11
109.276502
 21
-125.597084
 31
0.0
  0
LINE
  5
38
100
AcDbEntity
  8
0
390
0
  6
Continuous
 62
     7
100
AcDbLine
 10
109.276502
 20
-125.597084
 30
0.0
 11
107.508524
 21
-125.597084
 31
0.0
  0
LINE
  5
39
100
AcDbEntity
  8
0
390
0
  6
Continuous
 62
     7
100
AcDbLine
 10
107.508524
 20
-125.597084
 30
0.0
 11
106.50291
 21
-125.597084
 31
0.0
  0
LINE
  5
3A
100
AcDbEntity
  8
0
390
0
  6
Continuous
 62
     7
100
AcDbLine
 10
106.50291
 20
-125.597084
 30
0.0
 11
107.775764
 21
-125.597084
 31
0.0
  0
LINE
  5
3B
100
AcDbEntity
  8
0
390
0
  6
Continuous
 62
     7
100
AcDbLine
 10
124.230246
 20
-125.597084
 30
0.0
 11
125.503005
 21
-125.597084
 31
0.0
  0
LINE
  5
3C
100
AcDbEntity
  8
0
390
0
  6
Continuous
 62
     7
100
AcDbLine
 10
106.503005
 20
-125.597084
 30
0.0
 11
107.775764
 21
-125.597084
 31
0.0
  0
LINE
  5
3D
100
AcDbEntity
  8
0
390
0
  6
Continuous
 62
     7
100
AcDbLine
 10
106.694075
 20
-125.014715
 30
0.0
 11
106.91259
 21
-125.019712
 31
0.0
  0
LINE
  5
3E
100
AcDbEntity
  8
0
390
0
  6
Continuous
 62
     7
100
AcDbLine
 10
106.909738
 20
-125.019712
 30
0.0
 11
106.587855
 21
-125.008233
 31
0.0
  0
POLYLINE
  5
3F
100
AcDbEntity
  8
0
390
0
  6
Continuous
 62
     7
100
AcDb2dPolyline
 66
     1
 10
0.0
 20
0.0
 30
0.0
 40
0.1
 41
0.1
  0
VERTEX
  5
40
100
AcDbEntity
  8
0
390
0
 62
     7
100
AcDbVertex
100
AcDb2dVertex
 10
106.587855
 20
-125.008233
 30
0.0
  0
VERTEX
  5
41
100
AcDbEntity
  8
0
390
0
 62
     7
100
AcDbVertex
100
AcDb2dVertex
 10
106.407078
 20
-124.991791
 30
0.0
  0
VERTEX
  5
42
100
AcDbEntity
  8
0
390
0
 62
     7
100
AcDbVertex
100
AcDb2dVertex
 10
105.896434
 20
-124.907657
 30
0.0
  0
VERTEX
  5
43
100
AcDbEntity
  8
0
390
0
 62
     7
100
AcDbVertex
100
AcDb2dVertex
 10
105.382559
 20
-124.768427
 30
0.0
  0
VERTEX
  5
44
100
AcDbEntity
  8
0
390
0
 62
     7
100
AcDbVertex
100
AcDb2dVertex
 10
104.898842
 20
-124.59015
 30
0.0
  0
SEQEND
  5
45
100
AcDbEntity
  8
0
390
0
  0
LINE
  5
46
100
AcDbEntity
  8
0
390
0
  6
Continuous
 62
     7
100
AcDbLine
 10
104.898842
 20
-124.59015
 30
0.0
 11
103.87865
 21
-124.081856
 31
0.0
  0
POLYLINE
  5
47
100
AcDbEntity
  8
0
390
0
  6
Continuous
 62
     7
100
AcDb2dPolyline
 66
     1
 10
0.0
 20
0.0
 30
0.0
 40
0.1
 41
0.1
  0
VERTEX
  5
48
100
AcDbEntity
  8
0
390
0
 62
     7
100
AcDbVertex
100
AcDb2dVertex
 10
109.940827
 20
-124.081856
 30
0.0
 42
-0.100922
  0
VERTEX
  5
49
100
AcDbEntity
  8
0
390
0
 62
     7
100
AcDbVertex
100
AcDb2dVertex
 10
107.415283
 20
-124.991387
 30
0.0
  0
VERTEX
  5
4A
100
AcDbEntity
  8
0
390
0
 62
     7
100
AcDbVertex
100
AcDb2dVertex
 10
106.909738
 20
-125.019712
 30
0.0
  0
SEQEND
  5
4B
100
AcDbEntity
  8
0
390
0
  0
ARC
  5
4C
100
AcDbEntity
  8
0
390
0
  6
Continuous
 62
     7
100
AcDbCircle
 10
116.003005
 20
-104.95823
 30
0.0
 40
20.061482
210
0.0
220
0.0
230
1.0
100
AcDbArc
 50
252.411416
 51
287.588584
  0
LINE
  5
4D
100
AcDbEntity
  8
0
390
0
  6
Continuous
 62
     7
100
AcDbLine
 10
128.12736
 20
-124.081856
 30
0.0
 11
127.611205
 21
-124.360038
 31
0.0
  0
POLYLINE
  5
4E
100
AcDbEntity
  8
0
390
0
  6
Continuous
 62
     7
100
AcDb2dPolyline
 66
     1
 10
0.0
 20
0.0
 30
0.0
 40
0.1
 41
0.1
  0
VERTEX
  5
4F
100
AcDbEntity
  8
0
390
0
 62
     7
100
AcDbVertex
100
AcDb2dVertex
 10
127.611205
 20
-124.360038
 30
0.0
 42
-0.088559
  0
VERTEX
  5
50
100
AcDbEntity
  8
0
390
0
 62
     7
100
AcDbVertex
100
AcDb2dVertex
 10
125.600765
 20
-124.992117
 30
0.0
  0
VERTEX
  5
51
100
AcDbEntity
  8
0
390
0
 62
     7
100
AcDbVertex
100
AcDb2dVertex
 10
125.090479
 20
-125.019709
 30
0.0
  0
VERTEX
  5
52
100
AcDbEntity
  8
0
390
0
 62
     7
100
AcDbVertex
100
AcDb2dVertex
 10
124.5838
 20
-124.991116
 30
0.0
  0
VERTEX
  5
53
100
AcDbEntity
  8
0
390
0
 62
     7
100
AcDbVertex
100
AcDb2dVertex
 10
124.075942
 20
-124.906517
 30
0.0
  0
VERTEX
  5
54
100
AcDbEntity
  8
0
390
0
 62
     7
100
AcDbVertex
100
AcDb2dVertex
 10
123.562355
 20
-124.766249
 30
0.0
  0
VERTEX
  5
55
100
AcDbEntity
  8
0
390
0
 62
     7
100
AcDbVertex
100
AcDb2dVertex
 10
123.07965
 20
-124.588025
 30
0.0
  0
SEQEND
  5
56
100
AcDbEntity
  8
0
390
0
  0
LINE
  5
57
100
AcDbEntity
  8
0
390
0
  6
Continuous
 62
     7
100
AcDbLine
 10
123.07965
 20
-124.588025
 30
0.0
 11
122.065183
 21
-124.081856
 31
0.0
  0
LINE
  5
58
100
AcDbEntity
  8
0
390
0
  6
Continuous
 62
     7
100
AcDbLine
 10
107.775764
 20
-125.597084
 30
0.0
 11
112.528235
 21
-125.597084
 31
0.0
  0
LINE
  5
59
100
AcDbEntity
  8
0
390
0
  6
Continuous
 62
     7
100
AcDbLine
 10
112.528235
 20
-125.597084
 30
0.0
 11
112.653022
 21
-125.597084
 31
0.0
  0
LINE
  5
5A
100
AcDbEntity
  8
0
390
0
  6
Continuous
 62
     7
100
AcDbLine
 10
112.653022
 20
-125.597084
 30
0.0
 11
114.466569
 21
-125.597084
 31
0.0
  0
LINE
  5
5B
100
AcDbEntity
  8
0
390
0
  6
Continuous
 62
     7
100
AcDbLine
 10
114.466569
 20
-125.597084
 30
0.0
 11
114.59233
 21
-125.597084
 31
0.0
  0
LINE
  5
5C
100
AcDbEntity
  8
0
390
0
  6
Continuous
 62
     7
100
AcDbLine
 10
114.59233
 20
-125.597084
 30
0.0
 11
115.068398
 21
-125.597084
 31
0.0
  0
LINE
  5
5D
100
AcDbEntity
  8
0
390
0
  6
Continuous
 62
     7
100
AcDbLine
 10
115.068398
 20
-125.597084
 30
0.0
 11
117.420101
 21
-125.597084
 31
0.0
  0
LINE
  5
5E
100
AcDbEntity
  8
0
390
0
  6
Continuous
 62
     7
100
AcDbLine
 10
117.420101
 20
-125.597084
 30
0.0
 11
117.538321
 21
-125.597084
 31
0.0
  0
LINE
  5
5F
100
AcDbEntity
  8
0
390
0
  6
Continuous
 62
     7
100
AcDbLine
 10
117.538321
 20
-125.597084
 30
0.0
 11
119.81555
 21
-125.597084
 31
0.0
  0
LINE
  5
60
100
AcDbEntity
  8
0
390
0
  6
Continuous
 62
     7
100
AcDbLine
 10
119.81555
 20
-125.597084
 30
0.0
 11
119.906599
 21
-125.597084
 31
0.0
  0
LINE
  5
61
100
AcDbEntity
  8
0
390
0
  6
Continuous
 62
     7
100
AcDbLine
 10
119.906599
 20
-125.597084
 30
0.0
 11
121.554459
 21
-125.597084
 31
0.0
  0
LINE
  5
62
100
AcDbEntity
  8
0
390
0
  6
Continuous
 62
     7
100
AcDbLine
 10
121.554459
 20
-125.597084
 30
0.0
 11
121.635486
 21
-125.597084
 31
0.0
  0
LINE
  5
63
100
AcDbEntity
  8
0
390
0
  6
Continuous
 62
     7
100
AcDbLine
 10
121.635486
 20
-125.597084
 30
0.0
 11
125.503005
 21
-125.597084
 31
0.0
  0
LINE
  5
64
100
AcDbEntity
  8
0
390
0
  6
Continuous
 62
     7
100
AcDbLine
 10
107.509012
 20
-125.597084
 30
0.0
 11
107.723861
 21
-125.597084
 31
0.0
  0
LINE
  5
65
100
AcDbEntity
  8
0
390
0
  6
Continuous
 62
     7
100
AcDbLine
 10
106.503005
 20
-125.597084
 30
0.0
 11
107.509012
 21
-125.597084
 31
0.0
  0
LINE
  5
66
100
AcDbEntity
  8
0
390
0
  6
Continuous
 62
     7
100
AcDbLine
 10
103.87869
 20
-115.597084
 30
0.0
 11
109.940827
 21
-115.597084
 31
0.0
  0
LINE
  5
67
100
AcDbEntity
  8
0
390
0
  6
Continuous
 62
     7
100
AcDbLine
 10
109.940827
 20
-115.597084
 30
0.0
 11
122.065183
 21
-115.597084
 31
0.0
  0
LINE
  5
68
100
AcDbEntity
  8
0
390
0
  6
Continuous
 62
     7
100
AcDbLine
 10
122.065183
 20
-115.597084
 30
0.0
 11
128.127361
 21
-115.597084
 31
0.0
  0
LINE
  5
69
100
AcDbEntity
  8
0
390
0
  6
Continuous
 62
     7
100
AcDbLine
 10
119.255965
 20
-115.597084
 30
0.0
 11
118.287173
 21
-115.597084
 31
0.0
  0
LINE
  5
6A
100
AcDbEntity
  8
0
390
0
  6
Continuous
 62
     7
100
AcDbLine
 10
118.287173
 20
-115.597084
 30
0.0
 11
116.195671
 21
-115.597084
 31
0.0
  0
LINE
  5
6B
100
AcDbEntity
  8
0
390
0
  6
Continuous
 62
     7
100
AcDbLine
 10
116.195671
 20
-115.597084
 30
0.0
 11
116.111316
 21
-115.597084
 31
0.0
  0
LINE
  5
6C
100
AcDbEntity
  8
0
390
0
  6
Continuous
 62
     7
100
AcDbLine
 10
115.911308
 20
-115.597084
 30
0.0
 11
114.651118
 21
-115.597084
 31
0.0
  0
LINE
  5
6D
100
AcDbEntity
  8
0
390
0
  6
Continuous
 62
     7
100
AcDbLine
 10
114.651118
 20
-115.597084
 30
0.0
 11
114.200271
 21
-115.597084
 31
0.0
  0
LINE
  5
6E
100
AcDbEntity
  8
0
390
0
  6
Continuous
 62
     7
100
AcDbLine
 10
114.200271
 20
-115.597084
 30
0.0
 11
113.364013
 21
-115.597084
 31
0.0
  0
LINE
  5
6F
100
AcDbEntity
  8
0
390
0
  6
Continuous
 62
     7
100
AcDbLine
 10
112.212334
 20
-115.597084
 30
0.0
 11
110.797113
 21
-115.597084
 31
0.0
  0
LINE
  5
70
100
AcDbEntity
  8
0
390
0
  6
Continuous
 62
     7
100
AcDbLine
 10
110.797113
 20
-115.597084
 30
0.0
 11
110.760953
 21
-115.597084
 31
0.0
  0
LINE
  5
71
100
AcDbEntity
  8
0
390
0
  6
Continuous
 62
     7
100
AcDbLine
 10
103.878649
 20
-115.597084
 30
0.0
 11
103.878649
 21
-120.375749
 31
0.0
  0
LINE
  5
72
100
AcDbEntity
  8
0
390
0
  6
Continuous
 62
     7
100
AcDbLine
 10
103.878649
 20
-120.375749
 30
0.0
 11
103.878649
 21
-124.081856
 31
0.0
  0
LINE
  5
73
100
AcDbEntity
  8
0
390
0
  6
Continuous
 62
     7
100
AcDbLine
 10
127.611202
 20
-124.359865
 30
0.0
 11
128.127361
 21
-124.081856
 31
0.0
  0
LINE
  5
74
100
AcDbEntity
  8
0
390
0
  6
Continuous
 62
     7
100
AcDbLine
 10
128.127361
 20
-124.081856
 30
0.0
 11
128.127361
 21
-120.375731
 31
0.0
  0
LINE
  5
75
100
AcDbEntity
  8
0
390
0
  6
Continuous
 62
     7
100
AcDbLine
 10
128.127361
 20
-120.375731
 30
0.0
 11
128.127361
 21
-115.597084
 31
0.0
  0
LINE
  5
76
100
AcDbEntity
  8
0
390
0
  6
Continuous
 62
     7
100
AcDbLine
 10
128.127361
 20
-115.597084
 30
0.0
 11
128.127361
 21
-120.375731
 31
0.0
  0
LINE
  5
77
100
AcDbEntity
  8
0
390
0
  6
Continuous
 62
     7
100
AcDbLine
 10
128.127361
 20
-120.375731
 30
0.0
 11
128.127361
 21
-124.081856
 31
0.0
  0
LINE
  5
78
100
AcDbEntity
  8
0
390
0
  6
Continuous
 62
     7
100
AcDbLine
 10
122.065183
 20
-115.597084
 30
0.0
 11
128.127361
 21
-115.597084
 31
0.0
  0
LINE
  5
79
100
AcDbEntity
  8
0
390
0
  6
Continuous
 62
     7
100
AcDbLine
 10
122.065183
 20
-124.081856
 30
0.0
 11
122.065183
 21
-115.597084
 31
0.0
  0
LINE
  5
7A
100
AcDbEntity
  8
0
390
0
  6
Continuous
 62
     7
100
AcDbLine
 10
128.127361
 20
-124.081856
 30
0.0
 11
127.611208
 21
-124.359849
 31
0.0
  0
POLYLINE
  5
7B
100
AcDbEntity
  8
0
390
0
  6
Continuous
 62
     7
100
AcDb2dPolyline
 66
     1
 10
0.0
 20
0.0
 30
0.0
 40
0.1
 41
0.1
  0
VERTEX
  5
7C
100
AcDbEntity
  8
0
390
0
 62
     7
100
AcDbVertex
100
AcDb2dVertex
 10
127.611208
 20
-124.359849
 30
0.0
 42
-0.08918
  0
VERTEX
  5
7D
100
AcDbEntity
  8
0
390
0
 62
     7
100
AcDbVertex
100
AcDb2dVertex
 10
125.595626
 20
-124.992088
 30
0.0
  0
VERTEX
  5
7E
100
AcDbEntity
  8
0
390
0
 62
     7
100
AcDbVertex
100
AcDb2dVertex
 10
125.090479
 20
-125.019709
 30
0.0
  0
VERTEX
  5
7F
100
AcDbEntity
  8
0
390
0
 62
     7
100
AcDbVertex
100
AcDb2dVertex
 10
124.588171
 20
-124.991142
 30
0.0
 42
-0.069351
  0
VERTEX
  5
80
100
AcDbEntity
  8
0
390
0
 62
     7
100
AcDbVertex
100
AcDb2dVertex
 10
123.079625
 20
-124.587684
 30
0.0
  0
SEQEND
  5
81
100
AcDbEntity
  8
0
390
0
  0
LINE
  5
82
100
AcDbEntity
  8
0
390
0
  6
Continuous
 62
     7
100
AcDbLine
 10
123.079625
 20
-124.587684
 30
0.0
 11
122.065183
 21
-124.081856
 31
0.0
  0
LINE
  5
83
100
AcDbEntity
  8
0
390
0
  6
Continuous
 62
     7
100
AcDbLine
 10
109.940827
 20
-115.597084
 30
0.0
 11
122.065183
 21
-115.597084
 31
0.0
  0
LINE
  5
84
100
AcDbEntity
  8
0
390
0
  6
Continuous
 62
     7
100
AcDbLine
 10
122.065183
 20
-115.597084
 30
0.0
 11
122.065183
 21
-124.081856
 31
0.0
  0
ARC
  5
85
100
AcDbEntity
  8
0
390
0
  6
Continuous
 62
     7
100
AcDbCircle
 10
116.003005
 20
-104.958229
 30
0.0
 40
20.061483
210
0.0
220
0.0
230
1.0
100
AcDbArc
 50
252.411417
 51
287.588583
  0
LINE
  5
86
100
AcDbEntity
  8
0
390
0
  6
Continuous
 62
     7
100
AcDbLine
 10
109.940827
 20
-124.081856
 30
0.0
 11
109.940827
 21
-120.393842
 31
0.0
  0
LINE
  5
87
100
AcDbEntity
  8
0
390
0
  6
Continuous
 62
     7
100
AcDbLine
 10
109.940827
 20
-120.393842
 30
0.0
 11
109.940827
 21
-115.597084
 31
0.0
  0
LINE
  5
88
100
AcDbEntity
  8
0
390
0
  6
Continuous
 62
     7
100
AcDbLine
 10
109.940827
 20
-115.597084
 30
0.0
 11
109.940827
 21
-120.393842
 31
0.0
  0
LINE
  5
89
100
AcDbEntity
  8
0
390
0
  6
Continuous
 62
     7
100
AcDbLine
 10
109.940827
 20
-120.393842
 30
0.0
 11
109.940827
 21
-124.081856
 31
0.0
  0
LINE
  5
8A
100
AcDbEntity
  8
0
390
0
  6
Continuous
 62
     7
100
AcDbLine
 10
103.87869
 20
-115.597084
 30
0.0
 11
109.940827
 21
-115.597084
 31
0.0
  0
LINE
  5
8B
100
AcDbEntity
  8
0
390
0
  6
Continuous
 62
     7
100
AcDbLine
 10
103.878649
 20
-124.081856
 30
0.0
 11
103.878649
 21
-120.375749
 31
0.0
  0
LINE
  5
8C
100
AcDbEntity
  8
0
390
0
  6
Continuous
 62
     7
100
AcDbLine
 10
103.878649
 20
-120.375749
 30
0.0
 11
103.878649
 21
-115.597084
 31
0.0
  0
ARC
  5
8D
100
AcDbEntity
  8
0
390
0
  6
Continuous
 62
     7
100
AcDbCircle
 10
106.685566
 20
-118.939535
 30
0.0
 40
6.086065
210
0.0
220
0.0
230
1.0
100
AcDbArc
 50
272.579736
 51
302.335184
  0
LINE
  5
8E
100
AcDbEntity
  8
0
390
0
  6
Continuous
 62
     7
100
AcDbLine
 10
106.959497
 20
-125.019433
 30
0.0
 11
106.910244
 21
-125.019712
 31
0.0
  0
LINE
  5
8F
100
AcDbEntity
  8
0
390
0
  6
Continuous
 62
     7
100
AcDbLine
 10
106.910244
 20
-125.019712
 30
0.0
 11
106.859994
 21
-125.019437
 31
0.0
  0
LINE
  5
90
100
AcDbEntity
  8
0
390
0
  6
Continuous
 62
     7
100
AcDbLine
 10
106.859994
 20
-125.019437
 30
0.0
 11
106.588245
 21
-125.00822
 31
0.0
  0
POLYLINE
  5
91
100
AcDbEntity
  8
0
390
0
  6
Continuous
 62
     7
100
AcDb2dPolyline
 66
     1
 10
0.0
 20
0.0
 30
0.0
 40
0.1
 41
0.1
  0
VERTEX
  5
92
100
AcDbEntity
  8
0
390
0
 62
     7
100
AcDbVertex
100
AcDb2dVertex
 10
106.588245
 20
-125.00822
 30
0.0
  0
VERTEX
  5
93
100
AcDbEntity
  8
0
390
0
 62
     7
100
AcDbVertex
100
AcDb2dVertex
 10
106.408519
 20
-124.991902
 30
0.0
 42
-0.069518
  0
VERTEX
  5
94
100
AcDbEntity
  8
0
390
0
 62
     7
100
AcDbVertex
100
AcDb2dVertex
 10
104.898822
 20
-124.590051
 30
0.0
  0
SEQEND
  5
95
100
AcDbEntity
  8
0
390
0
  0
LINE
  5
96
100
AcDbEntity
  8
0
390
0
  6
Continuous
 62
     7
100
AcDbLine
 10
104.898822
 20
-124.590051
 30
0.0
 11
103.878649
 21
-124.081856
 31
0.0
  0
LINE
  5
97
100
AcDbEntity
  8
0
390
0
  6
Continuous
 62
     7
100
AcDbLine
 10
-124.224236
 20
-125.597084
 30
0.0
 11
-117.535678
 21
-125.597084
 31
0.0
  0
LINE
  5
98
100
AcDbEntity
  8
0
390
0
  6
Continuous
 62
     7
100
AcDbLine
 10
-117.535678
 20
-125.597084
 30
0.0
 11
-117.404489
 21
-125.597084
 31
0.0
  0
LINE
  5
99
100
AcDbEntity
  8
0
390
0
  6
Continuous
 62
     7
100
AcDbLine
 10
-117.404489
 20
-125.597084
 30
0.0
 11
-116.929184
 21
-125.597084
 31
0.0
  0
LINE
  5
9A
100
AcDbEntity
  8
0
390
0
  6
Continuous
 62
     7
100
AcDbLine
 10
-116.929184
 20
-125.597084
 30
0.0
 11
-115.055214
 21
-125.597084
 31
0.0
  0
LINE
  5
9B
100
AcDbEntity
  8
0
390
0
  6
Continuous
 62
     7
100
AcDbLine
 10
-115.055214
 20
-125.597084
 30
0.0
 11
-114.931202
 21
-125.597084
 31
0.0
  0
LINE
  5
9C
100
AcDbEntity
  8
0
390
0
  6
Continuous
 62
     7
100
AcDbLine
 10
-114.931202
 20
-125.597084
 30
0.0
 11
-114.58501
 21
-125.597084
 31
0.0
  0
LINE
  5
9D
100
AcDbEntity
  8
0
390
0
  6
Continuous
 62
     7
100
AcDbLine
 10
-114.58501
 20
-125.597084
 30
0.0
 11
-114.457589
 21
-125.597084
 31
0.0
  0
LINE
  5
9E
100
AcDbEntity
  8
0
390
0
  6
Continuous
 62
     7
100
AcDbLine
 10
-114.457589
 20
-125.597084
 30
0.0
 11
-112.190367
 21
-125.597084
 31
0.0
  0
LINE
  5
9F
100
AcDbEntity
  8
0
390
0
  6
Continuous
 62
     7
100
AcDbLine
 10
-112.190367
 20
-125.597084
 30
0.0
 11
-112.088257
 21
-125.597084
 31
0.0
  0
LINE
  5
A0
100
AcDbEntity
  8
0
390
0
  6
Continuous
 62
     7
100
AcDbLine
 10
-112.088257
 20
-125.597084
 30
0.0
 11
-106.4969
 21
-125.597084
 31
0.0
  0
LINE
  5
A1
100
AcDbEntity
  8
0
390
0
  6
Continuous
 62
     7
100
AcDbLine
 10
-106.4969
 20
-125.597084
 30
0.0
 11
-107.250118
 21
-125.597084
 31
0.0
  0
LINE
  5
A2
100
AcDbEntity
  8
0
390
0
  6
Continuous
 62
     7
100
AcDbLine
 10
-107.250118
 20
-125.597084
 30
0.0
 11
-107.769754
 21
-125.597084
 31
0.0
  0
LINE
  5
A3
100
AcDbEntity
  8
0
390
0
  6
Continuous
 62
     7
100
AcDbLine
 10
-107.769754
 20
-125.597084
 30
0.0
 11
-109.144796
 21
-125.597084
 31
0.0
  0
LINE
  5
A4
100
AcDbEntity
  8
0
390
0
  6
Continuous
 62
     7
100
AcDbLine
 10
-109.144796
 20
-125.597084
 30
0.0
 11
-109.971548
 21
-125.597084
 31
0.0
  0
LINE
  5
A5
100
AcDbEntity
  8
0
390
0
  6
Continuous
 62
     7
100
AcDbLine
 10
-122.11322
 20
-125.597084
 30
0.0
 11
-123.533852
 21
-125.597084
 31
0.0
  0
LINE
  5
A6
100
AcDbEntity
  8
0
390
0
  6
Continuous
 62
     7
100
AcDbLine
 10
-123.533852
 20
-125.597084
 30
0.0
 11
-124.277996
 21
-125.597084
 31
0.0
  0
LINE
  5
A7
100
AcDbEntity
  8
0
390
0
  6
Continuous
 62
     7
100
AcDbLine
 10
-124.277996
 20
-125.597084
 30
0.0
 11
-124.496932
 21
-125.597084
 31
0.0
  0
LINE
  5
A8
100
AcDbEntity
  8
0
390
0
  6
Continuous
 62
     7
100
AcDbLine
 10
-124.496932
 20
-125.597084
 30
0.0
 11
-125.49709
 21
-125.597084
 31
0.0
  0
LINE
  5
A9
100
AcDbEntity
  8
0
390
0
  6
Continuous
 62
     7
100
AcDbLine
 10
-125.49709
 20
-125.597084
 30
0.0
 11
-125.485669
 21
-125.597084
 31
0.0
  0
LINE
  5
AA
100
AcDbEntity
  8
0
390
0
  6
Continuous
 62
     7
100
AcDbLine
 10
-125.485669
 20
-125.597084
 30
0.0
 11
-124.224236
 21
-125.597084
 31
0.0
  0
LINE
  5
AB
100
AcDbEntity
  8
0
390
0
  6
Continuous
 62
     7
100
AcDbLine
 10
-106.508362
 20
-125.597084
 30
0.0
 11
-106.496995
 21
-125.597084
 31
0.0
  0
LINE
  5
AC
100
AcDbEntity
  8
0
390
0
  6
Continuous
 62
     7
100
AcDbLine
 10
-107.769754
 20
-125.597084
 30
0.0
 11
-106.508362
 21
-125.597084
 31
0.0
  0
LINE
  5
AD
100
AcDbEntity
  8
0
390
0
  6
Continuous
 62
     7
100
AcDbLine
 10
-125.496995
 20
-125.597084
 30
0.0
 11
-125.485617
 21
-125.597084
 31
0.0
  0
LINE
  5
AE
100
AcDbEntity
  8
0
390
0
  6
Continuous
 62
     7
100
AcDbLine
 10
-125.485617
 20
-125.597084
 30
0.0
 11
-124.224236
 21
-125.597084
 31
0.0
  0
POLYLINE
  5
AF
100
AcDbEntity
  8
0
390
0
  6
Continuous
 62
     7
100
AcDb2dPolyline
 66
     1
 10
0.0
 20
0.0
 30
0.0
 40
0.1
 41
0.1
  0
VERTEX
  5
B0
100
AcDbEntity
  8
0
390
0
 62
     7
100
AcDbVertex
100
AcDb2dVertex
 10
-122.059173
 20
-124.081856
 30
0.0
 42
-0.100922
  0
VERTEX
  5
B1
100
AcDbEntity
  8
0
390
0
 62
     7
100
AcDbVertex
100
AcDb2dVertex
 10
-124.584717
 20
-124.991387
 30
0.0
  0
VERTEX
  5
B2
100
AcDbEntity
  8
0
390
0
 62
     7
100
AcDbVertex
100
AcDb2dVertex
 10
-125.090262
 20
-125.019712
 30
0.0
  0
SEQEND
  5
B3
100
AcDbEntity
  8
0
390
0
  0
LINE
  5
B4
100
AcDbEntity
  8
0
390
0
  6
Continuous
 62
     7
100
AcDbLine
 10
-124.224236
 20
-125.597084
 30
0.0
 11
-117.535601
 21
-125.597084
 31
0.0
  0
LINE
  5
B5
100
AcDbEntity
  8
0
390
0
  6
Continuous
 62
     7
100
AcDbLine
 10
-117.535601
 20
-125.597084
 30
0.0
 11
-117.404348
 21
-125.597084
 31
0.0
  0
LINE
  5
B6
100
AcDbEntity
  8
0
390
0
  6
Continuous
 62
     7
100
AcDbLine
 10
-117.404348
 20
-125.597084
 30
0.0
 11
-116.92899
 21
-125.597084
 31
0.0
  0
LINE
  5
B7
100
AcDbEntity
  8
0
390
0
  6
Continuous
 62
     7
100
AcDbLine
 10
-116.92899
 20
-125.597084
 30
0.0
 11
-115.055158
 21
-125.597084
 31
0.0
  0
LINE
  5
B8
100
AcDbEntity
  8
0
390
0
  6
Continuous
 62
     7
100
AcDbLine
 10
-115.055158
 20
-125.597084
 30
0.0
 11
-114.931057
 21
-125.597084
 31
0.0
  0
LINE
  5
B9
100
AcDbEntity
  8
0
390
0
  6
Continuous
 62
     7
100
AcDbLine
 10
-114.931057
 20
-125.597084
 30
0.0
 11
-114.585276
 21
-125.597084
 31
0.0
  0
LINE
  5
BA
100
AcDbEntity
  8
0
390
0
  6
Continuous
 62
     7
100
AcDbLine
 10
-114.585276
 20
-125.597084
 30
0.0
 11
-114.457776
 21
-125.597084
 31
0.0
  0
LINE
  5
BB
100
AcDbEntity
  8
0
390
0
  6
Continuous
 62
     7
100
AcDbLine
 10
-114.457776
 20
-125.597084
 30
0.0
 11
-112.190689
 21
-125.597084
 31
0.0
  0
LINE
  5
BC
100
AcDbEntity
  8
0
390
0
  6
Continuous
 62
     7
100
AcDbLine
 10
-112.190689
 20
-125.597084
 30
0.0
 11
-112.088535
 21
-125.597084
 31
0.0
  0
LINE
  5
BD
100
AcDbEntity
  8
0
390
0
  6
Continuous
 62
     7
100
AcDbLine
 10
-112.088535
 20
-125.597084
 30
0.0
 11
-106.496995
 21
-125.597084
 31
0.0
  0
LINE
  5
BE
100
AcDbEntity
  8
0
390
0
  6
Continuous
 62
     7
100
AcDbLine
 10
-124.496571
 20
-125.597084
 30
0.0
 11
-124.276139
 21
-125.597084
 31
0.0
  0
LINE
  5
BF
100
AcDbEntity
  8
0
390
0
  6
Continuous
 62
     7
100
AcDbLine
 10
-125.496995
 20
-125.597084
 30
0.0
 11
-124.496571
 21
-125.597084
 31
0.0
  0
LINE
  5
C0
100
AcDbEntity
  8
0
390
0
  6
Continuous
 62
     7
100
AcDbLine
 10
-125.090262
 20
-125.019712
 30
0.0
 11
-125.412145
 21
-125.008233
 31
0.0
  0
POLYLINE
  5
C1
100
AcDbEntity
  8
0
390
0
  6
Continuous
 62
     7
100
AcDb2dPolyline
 66
     1
 10
0.0
 20
0.0
 30
0.0
 40
0.1
 41
0.1
  0
VERTEX
  5
C2
100
AcDbEntity
  8
0
390
0
 62
     7
100
AcDbVertex
100
AcDb2dVertex
 10
-125.412145
 20
-125.008233
 30
0.0
  0
VERTEX
  5
C3
100
AcDbEntity
  8
0
390
0
 62
     7
100
AcDbVertex
100
AcDb2dVertex
 10
-125.592922
 20
-124.991791
 30
0.0
  0
VERTEX
  5
C4
100
AcDbEntity
  8
0
390
0
 62
     7
100
AcDbVertex
100
AcDb2dVertex
 10
-126.103566
 20
-124.907657
 30
0.0
  0
VERTEX
  5
C5
100
AcDbEntity
  8
0
390
0
 62
     7
100
AcDbVertex
100
AcDb2dVertex
 10
-126.617441
 20
-124.768427
 30
0.0
  0
VERTEX
  5
C6
100
AcDbEntity
  8
0
390
0
 62
     7
100
AcDbVertex
100
AcDb2dVertex
 10
-127.101158
 20
-124.59015
 30
0.0
  0
SEQEND
  5
C7
100
AcDbEntity
  8
0
390
0
  0
LINE
  5
C8
100
AcDbEntity
  8
0
390
0
  6
Continuous
 62
     7
100
AcDbLine
 10
-127.101158
 20
-124.59015
 30
0.0
 11
-128.12135
 21
-124.081856
 31
0.0
  0
LINE
  5
C9
100
AcDbEntity
  8
0
390
0
  6
Continuous
 62
     7
100
AcDbLine
 10
-125.305925
 20
-125.014715
 30
0.0
 11
-125.08741
 21
-125.019712
 31
0.0
  0
LINE
  5
CA
100
AcDbEntity
  8
0
390
0
  6
Continuous
 62
     7
100
AcDbLine
 10
-103.87264
 20
-124.081856
 30
0.0
 11
-104.388795
 21
-124.360038
 31
0.0
  0
POLYLINE
  5
CB
100
AcDbEntity
  8
0
390
0
  6
Continuous
 62
     7
100
AcDb2dPolyline
 66
     1
 10
0.0
 20
0.0
 30
0.0
 40
0.1
 41
0.1
  0
VERTEX
  5
CC
100
AcDbEntity
  8
0
390
0
 62
     7
100
AcDbVertex
100
AcDb2dVertex
 10
-104.388795
 20
-124.360038
 30
0.0
 42
-0.088559
  0
VERTEX
  5
CD
100
AcDbEntity
  8
0
390
0
 62
     7
100
AcDbVertex
100
AcDb2dVertex
 10
-106.399235
 20
-124.992117
 30
0.0
  0
VERTEX
  5
CE
100
AcDbEntity
  8
0
390
0
 62
     7
100
AcDbVertex
100
AcDb2dVertex
 10
-106.909521
 20
-125.019709
 30
0.0
  0
VERTEX
  5
CF
100
AcDbEntity
  8
0
390
0
 62
     7
100
AcDbVertex
100
AcDb2dVertex
 10
-107.4162
 20
-124.991116
 30
0.0
  0
VERTEX
  5
D0
100
AcDbEntity
  8
0
390
0
 62
     7
100
AcDbVertex
100
AcDb2dVertex
 10
-107.924058
 20
-124.906517
 30
0.0
  0
VERTEX
  5
D1
100
AcDbEntity
  8
0
390
0
 62
     7
100
AcDbVertex
100
AcDb2dVertex
 10
-108.437645
 20
-124.766249
 30
0.0
  0
VERTEX
  5
D2
100
AcDbEntity
  8
0
390
0
 62
     7
100
AcDbVertex
100
AcDb2dVertex
 10
-108.92035
 20
-124.588025
 30
0.0
  0
SEQEND
  5
D3
100
AcDbEntity
  8
0
390
0
  0
LINE
  5
D4
100
AcDbEntity
  8
0
390
0
  6
Continuous
 62
     7
100
AcDbLine
 10
-108.92035
 20
-124.588025
 30
0.0
 11
-109.934817
 21
-124.081856
 31
0.0
  0
ARC
  5
D5
100
AcDbEntity
  8
0
390
0
  6
Continuous
 62
     7
100
AcDbCircle
 10
-115.996995
 20
-104.95823
 30
0.0
 40
20.061482
210
0.0
220
0.0
230
1.0
100
AcDbArc
 50
252.411416
 51
287.588584
  0
LINE
  5
D6
100
AcDbEntity
  8
0
390
0
  6
Continuous
 62
     7
100
AcDbLine
 10
-109.934817
 20
-115.597084
 30
0.0
 11
-103.872639
 21
-115.597084
 31
0.0
  0
LINE
  5
D7
100
AcDbEntity
  8
0
390
0
  6
Continuous
 62
     7
100
AcDbLine
 10
-122.059173
 20
-115.597084
 30
0.0
 11
-109.934817
 21
-115.597084
 31
0.0
  0
LINE
  5
D8
100
AcDbEntity
  8
0
390
0
  6
Continuous
 62
     7
100
AcDbLine
 10
-128.12131
 20
-115.597084
 30
0.0
 11
-122.059173
 21
-115.597084
 31
0.0
  0
LINE
  5
D9
100
AcDbEntity
  8
0
390
0
  6
Continuous
 62
     7
100
AcDbLine
 10
-111.561752
 20
-115.597084
 30
0.0
 11
-112.488853
 21
-115.597084
 31
0.0
  0
LINE
  5
DA
100
AcDbEntity
  8
0
390
0
  6
Continuous
 62
     7
100
AcDbLine
 10
-117.826949
 20
-115.597084
 30
0.0
 11
-118.364304
 21
-115.597084
 31
0.0
  0
LINE
  5
DB
100
AcDbEntity
  8
0
390
0
  6
Continuous
 62
     7
100
AcDbLine
 10
-118.364304
 20
-115.597084
 30
0.0
 11
-118.976102
 21
-115.597084
 31
0.0
  0
LINE
  5
DC
100
AcDbEntity
  8
0
390
0
  6
Continuous
 62
     7
100
AcDbLine
 10
-118.976102
 20
-115.597084
 30
0.0
 11
-119.169333
 21
-115.597084
 31
0.0
  0
LINE
  5
DD
100
AcDbEntity
  8
0
390
0
  6
Continuous
 62
     7
100
AcDbLine
 10
-119.169333
 20
-115.597084
 30
0.0
 11
-120.315023
 21
-115.597084
 31
0.0
  0
LINE
  5
DE
100
AcDbEntity
  8
0
390
0
  6
Continuous
 62
     7
100
AcDbLine
 10
-128.121351
 20
-115.597084
 30
0.0
 11
-128.121351
 21
-120.375709
 31
0.0
  0
LINE
  5
DF
100
AcDbEntity
  8
0
390
0
  6
Continuous
 62
     7
100
AcDbLine
 10
-128.121351
 20
-120.375709
 30
0.0
 11
-128.121351
 21
-124.081856
 31
0.0
  0
LINE
  5
E0
100
AcDbEntity
  8
0
390
0
  6
Continuous
 62
     7
100
AcDbLine
 10
-104.388798
 20
-124.359865
 30
0.0
 11
-103.872639
 21
-124.081856
 31
0.0
  0
LINE
  5
E1
100
AcDbEntity
  8
0
390
0
  6
Continuous
 62
     7
100
AcDbLine
 10
-103.872639
 20
-124.081856
 30
0.0
 11
-103.872639
 21
-120.375731
 31
0.0
  0
LINE
  5
E2
100
AcDbEntity
  8
0
390
0
  6
Continuous
 62
     7
100
AcDbLine
 10
-103.872639
 20
-120.375731
 30
0.0
 11
-103.872639
 21
-115.597084
 31
0.0
  0
LINE
  5
E3
100
AcDbEntity
  8
0
390
0
  6
Continuous
 62
     7
100
AcDbLine
 10
-103.872639
 20
-115.597084
 30
0.0
 11
-103.872639
 21
-120.375731
 31
0.0
  0
LINE
  5
E4
100
AcDbEntity
  8
0
390
0
  6
Continuous
 62
     7
100
AcDbLine
 10
-103.872639
 20
-120.375731
 30
0.0
 11
-103.872639
 21
-124.081856
 31
0.0
  0
LINE
  5
E5
100
AcDbEntity
  8
0
390
0
  6
Continuous
 62
     7
100
AcDbLine
 10
-109.934817
 20
-115.597084
 30
0.0
 11
-103.872639
 21
-115.597084
 31
0.0
  0
LINE
  5
E6
100
AcDbEntity
  8
0
390
0
  6
Continuous
 62
     7
100
AcDbLine
 10
-109.934817
 20
-124.081856
 30
0.0
 11
-109.934817
 21
-115.597084
 31
0.0
  0
LINE
  5
E7
100
AcDbEntity
  8
0
390
0
  6
Continuous
 62
     7
100
AcDbLine
 10
-103.872639
 20
-124.081856
 30
0.0
 11
-104.388792
 21
-124.359849
 31
0.0
  0
POLYLINE
  5
E8
100
AcDbEntity
  8
0
390
0
  6
Continuous
 62
     7
100
AcDb2dPolyline
 66
     1
 10
0.0
 20
0.0
 30
0.0
 40
0.1
 41
0.1
  0
VERTEX
  5
E9
100
AcDbEntity
  8
0
390
0
 62
     7
100
AcDbVertex
100
AcDb2dVertex
 10
-104.388792
 20
-124.359849
 30
0.0
 42
-0.08918
  0
VERTEX
  5
EA
100
AcDbEntity
  8
0
390
0
 62
     7
100
AcDbVertex
100
AcDb2dVertex
 10
-106.404374
 20
-124.992088
 30
0.0
  0
VERTEX
  5
EB
100
AcDbEntity
  8
0
390
0
 62
     7
100
AcDbVertex
100
AcDb2dVertex
 10
-106.909521
 20
-125.019709
 30
0.0
  0
VERTEX
  5
EC
100
AcDbEntity
  8
0
390
0
 62
     7
100
AcDbVertex
100
AcDb2dVertex
 10
-107.411829
 20
-124.991142
 30
0.0
 42
-0.069351
  0
VERTEX
  5
ED
100
AcDbEntity
  8
0
390
0
 62
     7
100
AcDbVertex
100
AcDb2dVertex
 10
-108.920375
 20
-124.587684
 30
0.0
  0
SEQEND
  5
EE
100
AcDbEntity
  8
0
390
0
  0
LINE
  5
EF
100
AcDbEntity
  8
0
390
0
  6
Continuous
 62
     7
100
AcDbLine
 10
-108.920375
 20
-124.587684
 30
0.0
 11
-109.934817
 21
-124.081856
 31
0.0
  0
LINE
  5
F0
100
AcDbEntity
  8
0
390
0
  6
Continuous
 62
     7
100
AcDbLine
 10
-109.934817
 20
-115.597084
 30
0.0
 11
-109.934817
 21
-124.081856
 31
0.0
  0
LINE
  5
F1
100
AcDbEntity
  8
0
390
0
  6
Continuous
 62
     7
100
AcDbLine
 10
-122.059173
 20
-115.597084
 30
0.0
 11
-109.934817
 21
-115.597084
 31
0.0
  0
LINE
  5
F2
100
AcDbEntity
  8
0
390
0
  6
Continuous
 62
     7
100
AcDbLine
 10
-122.059173
 20
-124.081856
 30
0.0
 11
-122.059173
 21
-120.393842
 31
0.0
  0
LINE
  5
F3
100
AcDbEntity
  8
0
390
0
  6
Continuous
 62
     7
100
AcDbLine
 10
-122.059173
 20
-120.393842
 30
0.0
 11
-122.059173
 21
-115.597084
 31
0.0
  0
ARC
  5
F4
100
AcDbEntity
  8
0
390
0
  6
Continuous
 62
     7
100
AcDbCircle
 10
-115.996995
 20
-104.958229
 30
0.0
 40
20.061483
210
0.0
220
0.0
230
1.0
100
AcDbArc
 50
252.411417
 51
287.588583
  0
LINE
  5
F5
100
AcDbEntity
  8
0
390
0
  6
Continuous
 62
     7
100
AcDbLine
 10
-128.12131
 20
-115.597084
 30
0.0
 11
-122.059173
 21
-115.597084
 31
0.0
  0
LINE
  5
F6
100
AcDbEntity
  8
0
390
0
  6
Continuous
 62
     7
100
AcDbLine
 10
-122.059173
 20
-115.597084
 30
0.0
 11
-122.059173
 21
-120.393842
 31
0.0
  0
LINE
  5
F7
100
AcDbEntity
  8
0
390
0
  6
Continuous
 62
     7
100
AcDbLine
 10
-122.059173
 20
-120.393842
 30
0.0
 11
-122.059173
 21
-124.081856
 31
0.0
  0
ARC
  5
F8
100
AcDbEntity
  8
0
390
0
  6
Continuous
 62
     7
100
AcDbCircle
 10
-125.314434
 20
-118.939535
 30
0.0
 40
6.086065
210
0.0
220
0.0
230
1.0
100
AcDbArc
 50
272.579736
 51
302.335184
  0
LINE
  5
F9
100
AcDbEntity
  8
0
390
0
  6
Continuous
 62
     7
100
AcDbLine
 10
-125.040503
 20
-125.019433
 30
0.0
 11
-125.089756
 21
-125.019712
 31
0.0
  0
LINE
  5
FA
100
AcDbEntity
  8
0
390
0
  6
Continuous
 62
     7
100
AcDbLine
 10
-125.089756
 20
-125.019712
 30
0.0
 11
-125.140006
 21
-125.019437
 31
0.0
  0
LINE
  5
FB
100
AcDbEntity
  8
0
390
0
  6
Continuous
 62
     7
100
AcDbLine
 10
-125.140006
 20
-125.019437
 30
0.0
 11
-125.411756
 21
-125.00822
 31
0.0
  0
POLYLINE
  5
FC
100
AcDbEntity
  8
0
390
0
  6
Continuous
 62
     7
100
AcDb2dPolyline
 66
     1
 10
0.0
 20
0.0
 30
0.0
 40
0.1
 41
0.1
  0
VERTEX
  5
FD
100
AcDbEntity
  8
0
390
0
 62
     7
100
AcDbVertex
100
AcDb2dVertex
 10
-125.411756
 20
-125.00822
 30
0.0
  0
VERTEX
  5
FE
100
AcDbEntity
  8
0
390
0
 62
     7
100
AcDbVertex
100
AcDb2dVertex
 10
-125.591481
 20
-124.991902
 30
0.0
 42
-0.069518
  0
VERTEX
  5
FF
100
AcDbEntity
  8
0
390
0
 62
     7
100
AcDbVertex
100
AcDb2dVertex
 10
-127.101178
 20
-124.590051
 30
0.0
  0
SEQEND
  5
100
100
AcDbEntity
  8
0
390
0
  0
LINE
  5
101
100
AcDbEntity
  8
0
390
0
  6
Continuous
 62
     7
100
AcDbLine
 10
-127.101178
 20
-124.590051
 30
0.0
 11
-128.121351
 21
-124.081856
 31
0.0
  0
LINE
  5
102
100
AcDbEntity
  8
0
390
0
  6
Continuous
 62
     7
100
AcDbLine
 10
-128.121351
 20
-124.081856
 30
0.0
 11
-128.121351
 21
-120.375709
 31
0.0
  0
LINE
  5
103
100
AcDbEntity
  8
0
390
0
  6
Continuous
 62
     7
100
AcDbLine
 10
-128.121351
 20
-120.375709
 30
0.0
 11
-128.121351
 21
-115.597084
 31
0.0
  0
LINE
  5
104
100
AcDbEntity
  8
0
390
0
  6
Continuous
 62
     7
100
AcDbLine
 10
-35.396995
 20
-102.097085
 30
0.0
 11
-34.617202
 21
-102.097085
 31
0.0
  0
LINE
  5
105
100
AcDbEntity
  8
0
390
0
  6
Continuous
 62
     7
100
AcDbLine
 10
-34.617202
 20
-102.097085
 30
0.0
 11
-29.396995
 21
-103.997085
 31
0.0
  0
LINE
  5
106
100
AcDbEntity
  8
0
390
0
  6
Continuous
 62
     7
100
AcDbLine
 10
-29.396995
 20
-103.997085
 30
0.0
 11
-29.396995
 21
-108.097085
 31
0.0
  0
LINE
  5
107
100
AcDbEntity
  8
0
390
0
  6
Continuous
 62
     7
100
AcDbLine
 10
-35.396995
 20
-108.097085
 30
0.0
 11
-35.396995
 21
-102.097085
 31
0.0
  0
LINE
  5
108
100
AcDbEntity
  8
0
390
0
  6
Continuous
 62
     7
100
AcDbLine
 10
-35.396995
 20
-102.097085
 30
0.0
 11
-34.617202
 21
-102.097085
 31
0.0
  0
LINE
  5
109
100
AcDbEntity
  8
0
390
0
  6
Continuous
 62
     7
100
AcDbLine
 10
-34.617202
 20
-102.097085
 30
0.0
 11
-29.396995
 21
-103.997084
 31
0.0
  0
LINE
  5
10A
100
AcDbEntity
  8
0
390
0
  6
Continuous
 62
     7
100
AcDbLine
 10
-29.396995
 20
-103.997085
 30
0.0
 11
-29.396995
 21
-108.097084
 31
0.0
  0
LINE
  5
10B
100
AcDbEntity
  8
0
390
0
  6
Continuous
 62
     7
100
AcDbLine
 10
-35.396995
 20
-108.097085
 30
0.0
 11
-35.396995
 21
-102.097085
 31
0.0
  0
LINE
  5
10C
100
AcDbEntity
  8
0
390
0
  6
Continuous
 62
     7
100
AcDbLine
 10
35.403005
 20
-108.097083
 30
0.0
 11
35.403005
 21
-102.097083
 31
0.0
  0
LINE
  5
10D
100
AcDbEntity
  8
0
390
0
  6
Continuous
 62
     7
100
AcDbLine
 10
35.403005
 20
-102.097083
 30
0.0
 11
34.623212
 21
-102.097083
 31
0.0
  0
LINE
  5
10E
100
AcDbEntity
  8
0
390
0
  6
Continuous
 62
     7
100
AcDbLine
 10
34.623212
 20
-102.097083
 30
0.0
 11
29.403005
 21
-103.997083
 31
0.0
  0
LINE
  5
10F
100
AcDbEntity
  8
0
390
0
  6
Continuous
 62
     7
100
AcDbLine
 10
29.403005
 20
-103.997083
 30
0.0
 11
29.403005
 21
-108.097083
 31
0.0
  0
LINE
  5
110
100
AcDbEntity
  8
0
390
0
  6
Continuous
 62
     7
100
AcDbLine
 10
29.403005
 20
-108.097083
 30
0.0
 11
29.403005
 21
-103.997084
 31
0.0
  0
LINE
  5
111
100
AcDbEntity
  8
0
390
0
  6
Continuous
 62
     7
100
AcDbLine
 10
29.403005
 20
-103.997083
 30
0.0
 11
34.623212
 21
-102.097083
 31
0.0
  0
LINE
  5
112
100
AcDbEntity
  8
0
390
0
  6
Continuous
 62
     7
100
AcDbLine
 10
34.623212
 20
-102.097083
 30
0.0
 11
35.403005
 21
-102.097083
 31
0.0
  0
LINE
  5
113
100
AcDbEntity
  8
0
390
0
  6
Continuous
 62
     7
100
AcDbLine
 10
35.403005
 20
-102.097083
 30
0.0
 11
35.403005
 21
-108.097083
 31
0.0
  0
LINE
  5
114
100
AcDbEntity
  8
0
390
0
  6
Continuous
 62
     7
100
AcDbLine
 10
109.103005
 20
-111.597082
 30
0.0
 11
119.28353
 21
-111.597082
 31
0.0
  0
LINE
  5
115
100
AcDbEntity
  8
0
390
0
  6
Continuous
 62
     7
100
AcDbLine
 10
119.28353
 20
-111.597082
 30
0.0
 11
119.344762
 21
-111.597082
 31
0.0
  0
LINE
  5
116
100
AcDbEntity
  8
0
390
0
  6
Continuous
 62
     7
100
AcDbLine
 10
119.344762
 20
-111.597082
 30
0.0
 11
122.89667
 21
-111.597081
 31
0.0
  0
LINE
  5
117
100
AcDbEntity
  8
0
390
0
  6
Continuous
 62
     7
100
AcDbLine
 10
109.103005
 20
-111.597082
 30
0.0
 11
119.283172
 21
-111.597082
 31
0.0
  0
LINE
  5
118
100
AcDbEntity
  8
0
390
0
  6
Continuous
 62
     7
100
AcDbLine
 10
119.283172
 20
-111.597082
 30
0.0
 11
119.344398
 21
-111.597082
 31
0.0
  0
LINE
  5
119
100
AcDbEntity
  8
0
390
0
  6
Continuous
 62
     7
100
AcDbLine
 10
119.344398
 20
-111.597082
 30
0.0
 11
122.903005
 21
-111.597081
 31
0.0
  0
LINE
  5
11A
100
AcDbEntity
  8
0
390
0
  6
Continuous
 62
     7
100
AcDbLine
 10
122.903005
 20
-111.597081
 30
0.0
 11
122.415506
 21
-111.597081
 31
0.0
  0
LINE
  5
11B
100
AcDbEntity
  8
0
390
0
  6
Continuous
 62
     7
100
AcDbLine
 10
109.61368
 20
-111.597082
 30
0.0
 11
109.103005
 21
-111.597082
 31
0.0
  0
LINE
  5
11C
100
AcDbEntity
  8
0
390
0
  6
Continuous
 62
     7
100
AcDbLine
 10
-135.546995
 20
-109.897087
 30
0.0
 11
-135.546995
 21
-108.097087
 31
0.0
  0
LINE
  5
11D
100
AcDbEntity
  8
0
390
0
  6
Continuous
 62
     7
100
AcDbLine
 10
132.453005
 20
-108.097081
 30
0.0
 11
132.453005
 21
-109.897081
 31
0.0
  0
LINE
  5
11E
100
AcDbEntity
  8
0
390
0
  6
Continuous
 62
     7
100
AcDbLine
 10
117.453005
 20
-108.097082
 30
0.0
 11
117.453005
 21
-109.897082
 31
0.0
  0
LINE
  5
11F
100
AcDbEntity
  8
0
390
0
  6
Continuous
 62
     7
100
AcDbLine
 10
132.453005
 20
-108.097081
 30
0.0
 11
132.435367
 21
-108.097081
 31
0.0
  0
LINE
  5
120
100
AcDbEntity
  8
0
390
0
  6
Continuous
 62
     7
100
AcDbLine
 10
132.435367
 20
-108.097081
 30
0.0
 11
129.499023
 21
-108.097081
 31
0.0
  0
LINE
  5
121
100
AcDbEntity
  8
0
390
0
  6
Continuous
 62
     7
100
AcDbLine
 10
129.499023
 20
-108.097081
 30
0.0
 11
129.20768
 21
-108.097081
 31
0.0
  0
LINE
  5
122
100
AcDbEntity
  8
0
390
0
  6
Continuous
 62
     7
100
AcDbLine
 10
129.20768
 20
-108.097081
 30
0.0
 11
128.711195
 21
-108.097081
 31
0.0
  0
LINE
  5
123
100
AcDbEntity
  8
0
390
0
  6
Continuous
 62
     7
100
AcDbLine
 10
128.711195
 20
-108.097081
 30
0.0
 11
124.11164
 21
-108.097081
 31
0.0
  0
LINE
  5
124
100
AcDbEntity
  8
0
390
0
  6
Continuous
 62
     7
100
AcDbLine
 10
124.11164
 20
-108.097081
 30
0.0
 11
123.657361
 21
-108.097081
 31
0.0
  0
LINE
  5
125
100
AcDbEntity
  8
0
390
0
  6
Continuous
 62
     7
100
AcDbLine
 10
123.657361
 20
-108.097081
 30
0.0
 11
122.727919
 21
-108.097081
 31
0.0
  0
LINE
  5
126
100
AcDbEntity
  8
0
390
0
  6
Continuous
 62
     7
100
AcDbLine
 10
122.727919
 20
-108.097081
 30
0.0
 11
122.237867
 21
-108.097082
 31
0.0
  0
LINE
  5
127
100
AcDbEntity
  8
0
390
0
  6
Continuous
 62
     7
100
AcDbLine
 10
122.237867
 20
-108.097082
 30
0.0
 11
117.453005
 21
-108.097082
 31
0.0
  0
LINE
  5
128
100
AcDbEntity
  8
0
390
0
  6
Continuous
 62
     7
100
AcDbLine
 10
132.453005
 20
-109.897081
 30
0.0
 11
132.453005
 21
-108.097081
 31
0.0
  0
LINE
  5
129
100
AcDbEntity
  8
0
390
0
  6
Continuous
 62
     7
100
AcDbLine
 10
117.453005
 20
-109.897082
 30
0.0
 11
123.698973
 21
-109.897081
 31
0.0
  0
LINE
  5
12A
100
AcDbEntity
  8
0
390
0
  6
Continuous
 62
     7
100
AcDbLine
 10
123.698973
 20
-109.897081
 30
0.0
 11
124.086928
 21
-109.897081
 31
0.0
  0
LINE
  5
12B
100
AcDbEntity
  8
0
390
0
  6
Continuous
 62
     7
100
AcDbLine
 10
124.086928
 20
-109.897081
 30
0.0
 11
124.381838
 21
-109.897081
 31
0.0
  0
LINE
  5
12C
100
AcDbEntity
  8
0
390
0
  6
Continuous
 62
     7
100
AcDbLine
 10
124.381838
 20
-109.897081
 30
0.0
 11
124.766467
 21
-109.897081
 31
0.0
  0
LINE
  5
12D
100
AcDbEntity
  8
0
390
0
  6
Continuous
 62
     7
100
AcDbLine
 10
124.766467
 20
-109.897081
 30
0.0
 11
126.325131
 21
-109.897081
 31
0.0
  0
LINE
  5
12E
100
AcDbEntity
  8
0
390
0
  6
Continuous
 62
     7
100
AcDbLine
 10
126.325131
 20
-109.897081
 30
0.0
 11
126.708836
 21
-109.897081
 31
0.0
  0
LINE
  5
12F
100
AcDbEntity
  8
0
390
0
  6
Continuous
 62
     7
100
AcDbLine
 10
126.708836
 20
-109.897081
 30
0.0
 11
126.892811
 21
-109.897081
 31
0.0
  0
LINE
  5
130
100
AcDbEntity
  8
0
390
0
  6
Continuous
 62
     7
100
AcDbLine
 10
126.892811
 20
-109.897081
 30
0.0
 11
129.207475
 21
-109.897081
 31
0.0
  0
LINE
  5
131
100
AcDbEntity
  8
0
390
0
  6
Continuous
 62
     7
100
AcDbLine
 10
129.207475
 20
-109.897081
 30
0.0
 11
129.499237
 21
-109.897081
 31
0.0
  0
LINE
  5
132
100
AcDbEntity
  8
0
390
0
  6
Continuous
 62
     7
100
AcDbLine
 10
129.499237
 20
-109.897081
 30
0.0
 11
132.435368
 21
-109.897081
 31
0.0
  0
LINE
  5
133
100
AcDbEntity
  8
0
390
0
  6
Continuous
 62
     7
100
AcDbLine
 10
132.435368
 20
-109.897081
 30
0.0
 11
132.453005
 21
-109.897081
 31
0.0
  0
LINE
  5
134
100
AcDbEntity
  8
0
390
0
  6
Continuous
 62
     7
100
AcDbLine
 10
117.453005
 20
-109.897081
 30
0.0
 11
117.453005
 21
-108.097082
 31
0.0
  0
LINE
  5
135
100
AcDbEntity
  8
0
390
0
  6
Continuous
 62
     7
100
AcDbLine
 10
-120.546995
 20
-109.897086
 30
0.0
 11
117.453005
 21
-109.897081
 31
0.0
  0
LINE
  5
136
100
AcDbEntity
  8
0
390
0
  6
Continuous
 62
     7
100
AcDbLine
 10
-120.546995
 20
-108.097087
 30
0.0
 11
-120.546995
 21
-109.897086
 31
0.0
  0
LINE
  5
137
100
AcDbEntity
  8
0
390
0
  6
Continuous
 62
     7
100
AcDbLine
 10
117.453005
 20
-108.097082
 30
0.0
 11
-120.546995
 21
-108.097087
 31
0.0
  0
LINE
  5
138
100
AcDbEntity
  8
0
390
0
  6
Continuous
 62
     7
100
AcDbLine
 10
-135.546995
 20
-108.097087
 30
0.0
 11
-135.546995
 21
-109.897087
 31
0.0
  0
LINE
  5
139
100
AcDbEntity
  8
0
390
0
  6
Continuous
 62
     7
100
AcDbLine
 10
-120.546995
 20
-108.097086
 30
0.0
 11
-121.492428
 21
-108.097086
 31
0.0
  0
LINE
  5
13A
100
AcDbEntity
  8
0
390
0
  6
Continuous
 62
     7
100
AcDbLine
 10
-121.492428
 20
-108.097086
 30
0.0
 11
-122.005601
 21
-108.097086
 31
0.0
  0
LINE
  5
13B
100
AcDbEntity
  8
0
390
0
  6
Continuous
 62
     7
100
AcDbLine
 10
-122.005601
 20
-108.097086
 30
0.0
 11
-125.342736
 21
-108.097086
 31
0.0
  0
LINE
  5
13C
100
AcDbEntity
  8
0
390
0
  6
Continuous
 62
     7
100
AcDbLine
 10
-125.342736
 20
-108.097086
 30
0.0
 11
-125.816594
 21
-108.097086
 31
0.0
  0
LINE
  5
13D
100
AcDbEntity
  8
0
390
0
  6
Continuous
 62
     7
100
AcDbLine
 10
-125.816594
 20
-108.097086
 30
0.0
 11
-131.802351
 21
-108.097087
 31
0.0
  0
LINE
  5
13E
100
AcDbEntity
  8
0
390
0
  6
Continuous
 62
     7
100
AcDbLine
 10
-131.802351
 20
-108.097087
 30
0.0
 11
-132.134106
 21
-108.097087
 31
0.0
  0
LINE
  5
13F
100
AcDbEntity
  8
0
390
0
  6
Continuous
 62
     7
100
AcDbLine
 10
-132.134106
 20
-108.097087
 30
0.0
 11
-133.988436
 21
-108.097087
 31
0.0
  0
LINE
  5
140
100
AcDbEntity
  8
0
390
0
  6
Continuous
 62
     7
100
AcDbLine
 10
-133.988436
 20
-108.097087
 30
0.0
 11
-134.31384
 21
-108.097087
 31
0.0
  0
LINE
  5
141
100
AcDbEntity
  8
0
390
0
  6
Continuous
 62
     7
100
AcDbLine
 10
-134.31384
 20
-108.097087
 30
0.0
 11
-134.494576
 21
-108.097087
 31
0.0
  0
LINE
  5
142
100
AcDbEntity
  8
0
390
0
  6
Continuous
 62
     7
100
AcDbLine
 10
-134.494576
 20
-108.097087
 30
0.0
 11
-135.546995
 21
-108.097087
 31
0.0
  0
LINE
  5
143
100
AcDbEntity
  8
0
390
0
  6
Continuous
 62
     7
100
AcDbLine
 10
-120.546995
 20
-109.897086
 30
0.0
 11
-120.546995
 21
-108.097086
 31
0.0
  0
LINE
  5
144
100
AcDbEntity
  8
0
390
0
  6
Continuous
 62
     7
100
AcDbLine
 10
-135.546995
 20
-109.897087
 30
0.0
 11
-134.494939
 21
-109.897087
 31
0.0
  0
LINE
  5
145
100
AcDbEntity
  8
0
390
0
  6
Continuous
 62
     7
100
AcDbLine
 10
-134.494939
 20
-109.897087
 30
0.0
 11
-134.313398
 21
-109.897087
 31
0.0
  0
LINE
  5
146
100
AcDbEntity
  8
0
390
0
  6
Continuous
 62
     7
100
AcDbLine
 10
-134.313398
 20
-109.897087
 30
0.0
 11
-133.987559
 21
-109.897087
 31
0.0
  0
LINE
  5
147
100
AcDbEntity
  8
0
390
0
  6
Continuous
 62
     7
100
AcDbLine
 10
-133.987559
 20
-109.897087
 30
0.0
 11
-132.13504
 21
-109.897087
 31
0.0
  0
LINE
  5
148
100
AcDbEntity
  8
0
390
0
  6
Continuous
 62
     7
100
AcDbLine
 10
-132.13504
 20
-109.897087
 30
0.0
 11
-131.800131
 21
-109.897087
 31
0.0
  0
LINE
  5
149
100
AcDbEntity
  8
0
390
0
  6
Continuous
 62
     7
100
AcDbLine
 10
-131.800131
 20
-109.897087
 30
0.0
 11
-129.866473
 21
-109.897087
 31
0.0
  0
LINE
  5
14A
100
AcDbEntity
  8
0
390
0
  6
Continuous
 62
     7
100
AcDbLine
 10
-129.866473
 20
-109.897087
 30
0.0
 11
-129.483989
 21
-109.897087
 31
0.0
  0
LINE
  5
14B
100
AcDbEntity
  8
0
390
0
  6
Continuous
 62
     7
100
AcDbLine
 10
-129.483989
 20
-109.897087
 30
0.0
 11
-125.8183
 21
-109.897086
 31
0.0
  0
LINE
  5
14C
100
AcDbEntity
  8
0
390
0
  6
Continuous
 62
     7
100
AcDbLine
 10
-125.8183
 20
-109.897086
 30
0.0
 11
-125.338814
 21
-109.897086
 31
0.0
  0
LINE
  5
14D
100
AcDbEntity
  8
0
390
0
  6
Continuous
 62
     7
100
AcDbLine
 10
-125.338814
 20
-109.897086
 30
0.0
 11
-122.007457
 21
-109.897086
 31
0.0
  0
LINE
  5
14E
100
AcDbEntity
  8
0
390
0
  6
Continuous
 62
     7
100
AcDbLine
 10
-122.007457
 20
-109.897086
 30
0.0
 11
-121.488447
 21
-109.897086
 31
0.0
  0
LINE
  5
14F
100
AcDbEntity
  8
0
390
0
  6
Continuous
 62
     7
100
AcDbLine
 10
-121.488447
 20
-109.897086
 30
0.0
 11
-120.546995
 21
-109.897086
 31
0.0
  0
LINE
  5
150
100
AcDbEntity
  8
0
390
0
  6
Continuous
 62
     7
100
AcDbLine
 10
-135.546995
 20
-108.097087
 30
0.0
 11
-134.494687
 21
-108.097087
 31
0.0
  0
LINE
  5
151
100
AcDbEntity
  8
0
390
0
  6
Continuous
 62
     7
100
AcDbLine
 10
-134.494687
 20
-108.097087
 30
0.0
 11
-134.313728
 21
-108.097087
 31
0.0
  0
LINE
  5
152
100
AcDbEntity
  8
0
390
0
  6
Continuous
 62
     7
100
AcDbLine
 10
-134.313728
 20
-108.097087
 30
0.0
 11
-133.988496
 21
-108.097087
 31
0.0
  0
LINE
  5
153
100
AcDbEntity
  8
0
390
0
  6
Continuous
 62
     7
100
AcDbLine
 10
-133.988496
 20
-108.097087
 30
0.0
 11
-132.134254
 21
-108.097087
 31
0.0
  0
LINE
  5
154
100
AcDbEntity
  8
0
390
0
  6
Continuous
 62
     7
100
AcDbLine
 10
-132.134254
 20
-108.097087
 30
0.0
 11
-131.802496
 21
-108.097087
 31
0.0
  0
LINE
  5
155
100
AcDbEntity
  8
0
390
0
  6
Continuous
 62
     7
100
AcDbLine
 10
-131.802496
 20
-108.097087
 30
0.0
 11
-125.816497
 21
-108.097086
 31
0.0
  0
LINE
  5
156
100
AcDbEntity
  8
0
390
0
  6
Continuous
 62
     7
100
AcDbLine
 10
-125.816497
 20
-108.097086
 30
0.0
 11
-125.342657
 21
-108.097086
 31
0.0
  0
LINE
  5
157
100
AcDbEntity
  8
0
390
0
  6
Continuous
 62
     7
100
AcDbLine
 10
-125.342657
 20
-108.097086
 30
0.0
 11
-122.005662
 21
-108.097086
 31
0.0
  0
LINE
  5
158
100
AcDbEntity
  8
0
390
0
  6
Continuous
 62
     7
100
AcDbLine
 10
-122.005662
 20
-108.097086
 30
0.0
 11
-121.492537
 21
-108.097086
 31
0.0
  0
LINE
  5
159
100
AcDbEntity
  8
0
390
0
  6
Continuous
 62
     7
100
AcDbLine
 10
-121.492537
 20
-108.097086
 30
0.0
 11
-120.546995
 21
-108.097086
 31
0.0
  0
LINE
  5
15A
100
AcDbEntity
  8
0
390
0
  6
Continuous
 62
     7
100
AcDbLine
 10
-120.546995
 20
-108.097086
 30
0.0
 11
117.453005
 21
-108.097082
 31
0.0
  0
LINE
  5
15B
100
AcDbEntity
  8
0
390
0
  6
Continuous
 62
     7
100
AcDbLine
 10
117.453005
 20
-108.097082
 30
0.0
 11
122.237765
 21
-108.097082
 31
0.0
  0
LINE
  5
15C
100
AcDbEntity
  8
0
390
0
  6
Continuous
 62
     7
100
AcDbLine
 10
122.237765
 20
-108.097082
 30
0.0
 11
122.727803
 21
-108.097082
 31
0.0
  0
LINE
  5
15D
100
AcDbEntity
  8
0
390
0
  6
Continuous
 62
     7
100
AcDbLine
 10
122.727803
 20
-108.097082
 30
0.0
 11
123.657502
 21
-108.097081
 31
0.0
  0
LINE
  5
15E
100
AcDbEntity
  8
0
390
0
  6
Continuous
 62
     7
100
AcDbLine
 10
123.657502
 20
-108.097081
 30
0.0
 11
124.09485
 21
-108.097081
 31
0.0
  0
LINE
  5
15F
100
AcDbEntity
  8
0
390
0
  6
Continuous
 62
     7
100
AcDbLine
 10
124.09485
 20
-108.097081
 30
0.0
 11
128.711352
 21
-108.097081
 31
0.0
  0
LINE
  5
160
100
AcDbEntity
  8
0
390
0
  6
Continuous
 62
     7
100
AcDbLine
 10
128.711352
 20
-108.097081
 30
0.0
 11
129.207739
 21
-108.097081
 31
0.0
  0
LINE
  5
161
100
AcDbEntity
  8
0
390
0
  6
Continuous
 62
     7
100
AcDbLine
 10
129.207739
 20
-108.097081
 30
0.0
 11
129.49901
 21
-108.097081
 31
0.0
  0
LINE
  5
162
100
AcDbEntity
  8
0
390
0
  6
Continuous
 62
     7
100
AcDbLine
 10
129.49901
 20
-108.097081
 30
0.0
 11
132.435449
 21
-108.097081
 31
0.0
  0
LINE
  5
163
100
AcDbEntity
  8
0
390
0
  6
Continuous
 62
     7
100
AcDbLine
 10
132.435449
 20
-108.097081
 30
0.0
 11
132.453005
 21
-108.097081
 31
0.0
  0
LINE
  5
164
100
AcDbEntity
  8
0
390
0
  6
Continuous
 62
     7
100
AcDbLine
 10
132.453005
 20
-108.097081
 30
0.0
 11
131.400934
 21
-108.097081
 31
0.0
  0
LINE
  5
165
100
AcDbEntity
  8
0
390
0
  6
Continuous
 62
     7
100
AcDbLine
 10
131.400934
 20
-108.097081
 30
0.0
 11
131.229175
 21
-108.097081
 31
0.0
  0
LINE
  5
166
100
AcDbEntity
  8
0
390
0
  6
Continuous
 62
     7
100
AcDbLine
 10
131.229175
 20
-108.097081
 30
0.0
 11
131.113163
 21
-108.097081
 31
0.0
  0
LINE
  5
167
100
AcDbEntity
  8
0
390
0
  6
Continuous
 62
     7
100
AcDbLine
 10
131.113163
 20
-108.097081
 30
0.0
 11
130.953881
 21
-108.097081
 31
0.0
  0
LINE
  5
168
100
AcDbEntity
  8
0
390
0
  6
Continuous
 62
     7
100
AcDbLine
 10
130.953881
 20
-108.097081
 30
0.0
 11
130.786403
 21
-108.097081
 31
0.0
  0
LINE
  5
169
100
AcDbEntity
  8
0
390
0
  6
Continuous
 62
     7
100
AcDbLine
 10
130.786403
 20
-108.097081
 30
0.0
 11
130.386535
 21
-108.097081
 31
0.0
  0
LINE
  5
16A
100
AcDbEntity
  8
0
390
0
  6
Continuous
 62
     7
100
AcDbLine
 10
130.386535
 20
-108.097081
 30
0.0
 11
130.161085
 21
-108.097081
 31
0.0
  0
LINE
  5
16B
100
AcDbEntity
  8
0
390
0
  6
Continuous
 62
     7
100
AcDbLine
 10
130.161085
 20
-108.097081
 30
0.0
 11
129.083027
 21
-108.097081
 31
0.0
  0
LINE
  5
16C
100
AcDbEntity
  8
0
390
0
  6
Continuous
 62
     7
100
AcDbLine
 10
129.083027
 20
-108.097081
 30
0.0
 11
128.734585
 21
-108.097081
 31
0.0
  0
LINE
  5
16D
100
AcDbEntity
  8
0
390
0
  6
Continuous
 62
     7
100
AcDbLine
 10
128.734585
 20
-108.097081
 30
0.0
 11
127.823382
 21
-108.097081
 31
0.0
  0
LINE
  5
16E
100
AcDbEntity
  8
0
390
0
  6
Continuous
 62
     7
100
AcDbLine
 10
127.823382
 20
-108.097081
 30
0.0
 11
127.260994
 21
-108.097081
 31
0.0
  0
LINE
  5
16F
100
AcDbEntity
  8
0
390
0
  6
Continuous
 62
     7
100
AcDbLine
 10
127.260994
 20
-108.097081
 30
0.0
 11
126.17303
 21
-108.097081
 31
0.0
  0
LINE
  5
170
100
AcDbEntity
  8
0
390
0
  6
Continuous
 62
     7
100
AcDbLine
 10
126.17303
 20
-108.097081
 30
0.0
 11
125.771831
 21
-108.097081
 31
0.0
  0
LINE
  5
171
100
AcDbEntity
  8
0
390
0
  6
Continuous
 62
     7
100
AcDbLine
 10
125.771831
 20
-108.097081
 30
0.0
 11
124.095237
 21
-108.097081
 31
0.0
  0
LINE
  5
172
100
AcDbEntity
  8
0
390
0
  6
Continuous
 62
     7
100
AcDbLine
 10
124.095237
 20
-108.097081
 30
0.0
 11
123.193256
 21
-108.097081
 31
0.0
  0
LINE
  5
173
100
AcDbEntity
  8
0
390
0
  6
Continuous
 62
     7
100
AcDbLine
 10
123.193256
 20
-108.097081
 30
0.0
 11
122.886565
 21
-108.097081
 31
0.0
  0
LINE
  5
174
100
AcDbEntity
  8
0
390
0
  6
Continuous
 62
     7
100
AcDbLine
 10
122.886565
 20
-108.097081
 30
0.0
 11
122.72234
 21
-108.097081
 31
0.0
  0
LINE
  5
175
100
AcDbEntity
  8
0
390
0
  6
Continuous
 62
     7
100
AcDbLine
 10
122.72234
 20
-108.097081
 30
0.0
 11
122.40006
 21
-108.097081
 31
0.0
  0
LINE
  5
176
100
AcDbEntity
  8
0
390
0
  6
Continuous
 62
     7
100
AcDbLine
 10
122.40006
 20
-108.097081
 30
0.0
 11
122.266777
 21
-108.097081
 31
0.0
  0
LINE
  5
177
100
AcDbEntity
  8
0
390
0
  6
Continuous
 62
     7
100
AcDbLine
 10
122.266777
 20
-108.097081
 30
0.0
 11
121.60406
 21
-108.097081
 31
0.0
  0
LINE
  5
178
100
AcDbEntity
  8
0
390
0
  6
Continuous
 62
     7
100
AcDbLine
 10
-121.536582
 20
-108.097086
 30
0.0
 11
-121.597339
 21
-108.097086
 31
0.0
  0
LINE
  5
179
100
AcDbEntity
  8
0
390
0
  6
Continuous
 62
     7
100
AcDbLine
 10
-121.597339
 20
-108.097086
 30
0.0
 11
-123.802801
 21
-108.097086
 31
0.0
  0
LINE
  5
17A
100
AcDbEntity
  8
0
390
0
  6
Continuous
 62
     7
100
AcDbLine
 10
-123.802801
 20
-108.097086
 30
0.0
 11
-124.13525
 21
-108.097086
 31
0.0
  0
LINE
  5
17B
100
AcDbEntity
  8
0
390
0
  6
Continuous
 62
     7
100
AcDbLine
 10
-124.13525
 20
-108.097086
 30
0.0
 11
-125.069589
 21
-108.097086
 31
0.0
  0
LINE
  5
17C
100
AcDbEntity
  8
0
390
0
  6
Continuous
 62
     7
100
AcDbLine
 10
-125.069589
 20
-108.097086
 30
0.0
 11
-125.330008
 21
-108.097086
 31
0.0
  0
LINE
  5
17D
100
AcDbEntity
  8
0
390
0
  6
Continuous
 62
     7
100
AcDbLine
 10
-125.330008
 20
-108.097086
 30
0.0
 11
-125.497843
 21
-108.097086
 31
0.0
  0
LINE
  5
17E
100
AcDbEntity
  8
0
390
0
  6
Continuous
 62
     7
100
AcDbLine
 10
-125.497843
 20
-108.097086
 30
0.0
 11
-125.682436
 21
-108.097086
 31
0.0
  0
LINE
  5
17F
100
AcDbEntity
  8
0
390
0
  6
Continuous
 62
     7
100
AcDbLine
 10
-125.682436
 20
-108.097086
 30
0.0
 11
-125.822389
 21
-108.097086
 31
0.0
  0
LINE
  5
180
100
AcDbEntity
  8
0
390
0
  6
Continuous
 62
     7
100
AcDbLine
 10
-125.822389
 20
-108.097086
 30
0.0
 11
-126.494001
 21
-108.097086
 31
0.0
  0
LINE
  5
181
100
AcDbEntity
  8
0
390
0
  6
Continuous
 62
     7
100
AcDbLine
 10
-126.494001
 20
-108.097086
 30
0.0
 11
-126.79296
 21
-108.097086
 31
0.0
  0
LINE
  5
182
100
AcDbEntity
  8
0
390
0
  6
Continuous
 62
     7
100
AcDbLine
 10
-126.79296
 20
-108.097086
 30
0.0
 11
-127.181313
 21
-108.097086
 31
0.0
  0
LINE
  5
183
100
AcDbEntity
  8
0
390
0
  6
Continuous
 62
     7
100
AcDbLine
 10
-127.181313
 20
-108.097086
 30
0.0
 11
-127.860853
 21
-108.097086
 31
0.0
  0
LINE
  5
184
100
AcDbEntity
  8
0
390
0
  6
Continuous
 62
     7
100
AcDbLine
 10
-127.860853
 20
-108.097086
 30
0.0
 11
-128.794534
 21
-108.097086
 31
0.0
  0
LINE
  5
185
100
AcDbEntity
  8
0
390
0
  6
Continuous
 62
     7
100
AcDbLine
 10
-128.794534
 20
-108.097086
 30
0.0
 11
-128.868442
 21
-108.097086
 31
0.0
  0
LINE
  5
186
100
AcDbEntity
  8
0
390
0
  6
Continuous
 62
     7
100
AcDbLine
 10
-128.868442
 20
-108.097086
 30
0.0
 11
-129.162479
 21
-108.097086
 31
0.0
  0
LINE
  5
187
100
AcDbEntity
  8
0
390
0
  6
Continuous
 62
     7
100
AcDbLine
 10
-129.162479
 20
-108.097086
 30
0.0
 11
-129.775805
 21
-108.097087
 31
0.0
  0
LINE
  5
188
100
AcDbEntity
  8
0
390
0
  6
Continuous
 62
     7
100
AcDbLine
 10
-129.775805
 20
-108.097087
 30
0.0
 11
-130.182588
 21
-108.097087
 31
0.0
  0
LINE
  5
189
100
AcDbEntity
  8
0
390
0
  6
Continuous
 62
     7
100
AcDbLine
 10
-130.182588
 20
-108.097087
 30
0.0
 11
-131.830178
 21
-108.097087
 31
0.0
  0
LINE
  5
18A
100
AcDbEntity
  8
0
390
0
  6
Continuous
 62
     7
100
AcDbLine
 10
-131.830178
 20
-108.097087
 30
0.0
 11
-132.139152
 21
-108.097087
 31
0.0
  0
LINE
  5
18B
100
AcDbEntity
  8
0
390
0
  6
Continuous
 62
     7
100
AcDbLine
 10
-132.139152
 20
-108.097087
 30
0.0
 11
-132.242527
 21
-108.097087
 31
0.0
  0
LINE
  5
18C
100
AcDbEntity
  8
0
390
0
  6
Continuous
 62
     7
100
AcDbLine
 10
-132.242527
 20
-108.097087
 30
0.0
 11
-133.54753
 21
-108.097087
 31
0.0
  0
LINE
  5
18D
100
AcDbEntity
  8
0
390
0
  6
Continuous
 62
     7
100
AcDbLine
 10
-133.54753
 20
-108.097087
 30
0.0
 11
-134.311727
 21
-108.097087
 31
0.0
  0
LINE
  5
18E
100
AcDbEntity
  8
0
390
0
  6
Continuous
 62
     7
100
AcDbLine
 10
-134.311727
 20
-108.097087
 30
0.0
 11
-134.493742
 21
-108.097087
 31
0.0
  0
LINE
  5
18F
100
AcDbEntity
  8
0
390
0
  6
Continuous
 62
     7
100
AcDbLine
 10
-134.493742
 20
-108.097087
 30
0.0
 11
-134.518352
 21
-108.097087
 31
0.0
  0
LINE
  5
190
100
AcDbEntity
  8
0
390
0
  6
Continuous
 62
     7
100
AcDbLine
 10
-134.518352
 20
-108.097087
 30
0.0
 11
-135.036988
 21
-108.097087
 31
0.0
  0
LINE
  5
191
100
AcDbEntity
  8
0
390
0
  6
Continuous
 62
     7
100
AcDbLine
 10
-135.036988
 20
-108.097087
 30
0.0
 11
-135.346677
 21
-108.097087
 31
0.0
  0
LINE
  5
192
100
AcDbEntity
  8
0
390
0
  6
Continuous
 62
     7
100
AcDbLine
 10
-135.346677
 20
-108.097087
 30
0.0
 11
-135.546995
 21
-108.097087
 31
0.0
  0
LINE
  5
193
100
AcDbEntity
  8
0
390
0
  6
Continuous
 62
     7
100
AcDbLine
 10
122.403005
 20
-108.097082
 30
0.0
 11
121.541962
 21
-108.097082
 31
0.0
  0
LINE
  5
194
100
AcDbEntity
  8
0
390
0
  6
Continuous
 62
     7
100
AcDbLine
 10
121.541962
 20
-108.097082
 30
0.0
 11
120.299231
 21
-108.097082
 31
0.0
  0
LINE
  5
195
100
AcDbEntity
  8
0
390
0
  6
Continuous
 62
     7
100
AcDbLine
 10
120.299231
 20
-108.097082
 30
0.0
 11
119.971877
 21
-108.097082
 31
0.0
  0
LINE
  5
196
100
AcDbEntity
  8
0
390
0
  6
Continuous
 62
     7
100
AcDbLine
 10
119.971877
 20
-108.097082
 30
0.0
 11
119.188138
 21
-108.097082
 31
0.0
  0
LINE
  5
197
100
AcDbEntity
  8
0
390
0
  6
Continuous
 62
     7
100
AcDbLine
 10
119.188138
 20
-108.097082
 30
0.0
 11
117.920592
 21
-108.097082
 31
0.0
  0
LINE
  5
198
100
AcDbEntity
  8
0
390
0
  6
Continuous
 62
     7
100
AcDbLine
 10
117.920592
 20
-108.097082
 30
0.0
 11
117.515451
 21
-108.097082
 31
0.0
  0
LINE
  5
199
100
AcDbEntity
  8
0
390
0
  6
Continuous
 62
     7
100
AcDbLine
 10
117.515451
 20
-108.097082
 30
0.0
 11
117.441316
 21
-108.097082
 31
0.0
  0
LINE
  5
19A
100
AcDbEntity
  8
0
390
0
  6
Continuous
 62
     7
100
AcDbLine
 10
117.366141
 20
-108.097082
 30
0.0
 11
115.90272
 21
-108.097082
 31
0.0
  0
LINE
  5
19B
100
AcDbEntity
  8
0
390
0
  6
Continuous
 62
     7
100
AcDbLine
 10
115.90272
 20
-108.097082
 30
0.0
 11
115.719165
 21
-108.097082
 31
0.0
  0
LINE
  5
19C
100
AcDbEntity
  8
0
390
0
  6
Continuous
 62
     7
100
AcDbLine
 10
115.719165
 20
-108.097082
 30
0.0
 11
114.607851
 21
-108.097082
 31
0.0
  0
LINE
  5
19D
100
AcDbEntity
  8
0
390
0
  6
Continuous
 62
     7
100
AcDbLine
 10
114.607851
 20
-108.097082
 30
0.0
 11
114.208245
 21
-108.097082
 31
0.0
  0
LINE
  5
19E
100
AcDbEntity
  8
0
390
0
  6
Continuous
 62
     7
100
AcDbLine
 10
114.208245
 20
-108.097082
 30
0.0
 11
114.076202
 21
-108.097082
 31
0.0
  0
LINE
  5
19F
100
AcDbEntity
  8
0
390
0
  6
Continuous
 62
     7
100
AcDbLine
 10
114.076202
 20
-108.097082
 30
0.0
 11
112.845889
 21
-108.097082
 31
0.0
  0
LINE
  5
1A0
100
AcDbEntity
  8
0
390
0
  6
Continuous
 62
     7
100
AcDbLine
 10
112.845889
 20
-108.097082
 30
0.0
 11
111.706975
 21
-108.097082
 31
0.0
  0
LINE
  5
1A1
100
AcDbEntity
  8
0
390
0
  6
Continuous
 62
     7
100
AcDbLine
 10
111.706975
 20
-108.097082
 30
0.0
 11
110.324623
 21
-108.097082
 31
0.0
  0
LINE
  5
1A2
100
AcDbEntity
  8
0
390
0
  6
Continuous
 62
     7
100
AcDbLine
 10
110.324623
 20
-108.097082
 30
0.0
 11
110.090176
 21
-108.097082
 31
0.0
  0
LINE
  5
1A3
100
AcDbEntity
  8
0
390
0
  6
Continuous
 62
     7
100
AcDbLine
 10
110.090176
 20
-108.097082
 30
0.0
 11
109.603005
 21
-108.097082
 31
0.0
  0
LINE
  5
1A4
100
AcDbEntity
  8
0
390
0
  6
Continuous
 62
     7
100
AcDbLine
 10
109.603005
 20
-108.097082
 30
0.0
 11
110.204423
 21
-108.097082
 31
0.0
  0
LINE
  5
1A5
100
AcDbEntity
  8
0
390
0
  6
Continuous
 62
     7
100
AcDbLine
 10
110.204423
 20
-108.097082
 30
0.0
 11
110.329047
 21
-108.097082
 31
0.0
  0
LINE
  5
1A6
100
AcDbEntity
  8
0
390
0
  6
Continuous
 62
     7
100
AcDbLine
 10
110.329047
 20
-108.097082
 30
0.0
 11
110.464047
 21
-108.097082
 31
0.0
  0
LINE
  5
1A7
100
AcDbEntity
  8
0
390
0
  6
Continuous
 62
     7
100
AcDbLine
 10
121.681386
 20
-108.097082
 30
0.0
 11
122.403005
 21
-108.097082
 31
0.0
  0
LINE
  5
1A8
100
AcDbEntity
  8
0
390
0
  6
Continuous
 62
     7
100
AcDbLine
 10
-118.996995
 20
-108.097086
 30
0.0
 11
-120.511096
 21
-108.097086
 31
0.0
  0
LINE
  5
1A9
100
AcDbEntity
  8
0
390
0
  6
Continuous
 62
     7
100
AcDbLine
 10
-120.511096
 20
-108.097086
 30
0.0
 11
-120.728247
 21
-108.097086
 31
0.0
  0
LINE
  5
1AA
100
AcDbEntity
  8
0
390
0
  6
Continuous
 62
     7
100
AcDbLine
 10
-120.728247
 20
-108.097086
 30
0.0
 11
-122.498246
 21
-108.097086
 31
0.0
  0
LINE
  5
1AB
100
AcDbEntity
  8
0
390
0
  6
Continuous
 62
     7
100
AcDbLine
 10
-122.498246
 20
-108.097086
 30
0.0
 11
-122.817914
 21
-108.097086
 31
0.0
  0
LINE
  5
1AC
100
AcDbEntity
  8
0
390
0
  6
Continuous
 62
     7
100
AcDbLine
 10
-122.817914
 20
-108.097086
 30
0.0
 11
-123.81513
 21
-108.097086
 31
0.0
  0
LINE
  5
1AD
100
AcDbEntity
  8
0
390
0
  6
Continuous
 62
     7
100
AcDbLine
 10
-123.81513
 20
-108.097086
 30
0.0
 11
-125.496995
 21
-108.097086
 31
0.0
  0
LINE
  5
1AE
100
AcDbEntity
  8
0
390
0
  6
Continuous
 62
     7
100
AcDbLine
 10
-125.496995
 20
-108.097086
 30
0.0
 11
-124.151041
 21
-108.097086
 31
0.0
  0
LINE
  5
1AF
100
AcDbEntity
  8
0
390
0
  6
Continuous
 62
     7
100
AcDbLine
 10
-124.151041
 20
-108.097086
 30
0.0
 11
-123.240633
 21
-108.097086
 31
0.0
  0
LINE
  5
1B0
100
AcDbEntity
  8
0
390
0
  6
Continuous
 62
     7
100
AcDbLine
 10
-123.240633
 20
-108.097086
 30
0.0
 11
-121.561798
 21
-108.097086
 31
0.0
  0
LINE
  5
1B1
100
AcDbEntity
  8
0
390
0
  6
Continuous
 62
     7
100
AcDbLine
 10
-110.412958
 20
-108.097086
 30
0.0
 11
-110.245587
 21
-108.097086
 31
0.0
  0
LINE
  5
1B2
100
AcDbEntity
  8
0
390
0
  6
Continuous
 62
     7
100
AcDbLine
 10
-110.245587
 20
-108.097086
 30
0.0
 11
-109.168039
 21
-108.097086
 31
0.0
  0
LINE
  5
1B3
100
AcDbEntity
  8
0
390
0
  6
Continuous
 62
     7
100
AcDbLine
 10
-109.168039
 20
-108.097086
 30
0.0
 11
-108.605413
 21
-108.097086
 31
0.0
  0
LINE
  5
1B4
100
AcDbEntity
  8
0
390
0
  6
Continuous
 62
     7
100
AcDbLine
 10
-108.605413
 20
-108.097086
 30
0.0
 11
-108.400801
 21
-108.097086
 31
0.0
  0
LINE
  5
1B5
100
AcDbEntity
  8
0
390
0
  6
Continuous
 62
     7
100
AcDbLine
 10
-108.400801
 20
-108.097086
 30
0.0
 11
-107.93916
 21
-108.097086
 31
0.0
  0
LINE
  5
1B6
100
AcDbEntity
  8
0
390
0
  6
Continuous
 62
     7
100
AcDbLine
 10
-107.93916
 20
-108.097086
 30
0.0
 11
-107.738775
 21
-108.097086
 31
0.0
  0
LINE
  5
1B7
100
AcDbEntity
  8
0
390
0
  6
Continuous
 62
     7
100
AcDbLine
 10
-107.738775
 20
-108.097086
 30
0.0
 11
-107.681275
 21
-108.097086
 31
0.0
  0
LINE
  5
1B8
100
AcDbEntity
  8
0
390
0
  6
Continuous
 62
     7
100
AcDbLine
 10
-107.681275
 20
-108.097086
 30
0.0
 11
-107.265498
 21
-108.097086
 31
0.0
  0
LINE
  5
1B9
100
AcDbEntity
  8
0
390
0
  6
Continuous
 62
     7
100
AcDbLine
 10
-107.265498
 20
-108.097086
 30
0.0
 11
-106.887174
 21
-108.097086
 31
0.0
  0
LINE
  5
1BA
100
AcDbEntity
  8
0
390
0
  6
Continuous
 62
     7
100
AcDbLine
 10
-106.887174
 20
-108.097086
 30
0.0
 11
-106.794978
 21
-108.097086
 31
0.0
  0
LINE
  5
1BB
100
AcDbEntity
  8
0
390
0
  6
Continuous
 62
     7
100
AcDbLine
 10
-106.794978
 20
-108.097086
 30
0.0
 11
-106.71519
 21
-108.097086
 31
0.0
  0
LINE
  5
1BC
100
AcDbEntity
  8
0
390
0
  6
Continuous
 62
     7
100
AcDbLine
 10
-106.71519
 20
-108.097086
 30
0.0
 11
-106.570384
 21
-108.097086
 31
0.0
  0
LINE
  5
1BD
100
AcDbEntity
  8
0
390
0
  6
Continuous
 62
     7
100
AcDbLine
 10
-106.570384
 20
-108.097086
 30
0.0
 11
-106.496995
 21
-108.097086
 31
0.0
  0
LINE
  5
1BE
100
AcDbEntity
  8
0
390
0
  6
Continuous
 62
     7
100
AcDbLine
 10
-106.496995
 20
-108.097086
 30
0.0
 11
-106.991778
 21
-108.097086
 31
0.0
  0
LINE
  5
1BF
100
AcDbEntity
  8
0
390
0
  6
Continuous
 62
     7
100
AcDbLine
 10
-106.991778
 20
-108.097086
 30
0.0
 11
-108.110439
 21
-108.097086
 31
0.0
  0
LINE
  5
1C0
100
AcDbEntity
  8
0
390
0
  6
Continuous
 62
     7
100
AcDbLine
 10
-108.110439
 20
-108.097086
 30
0.0
 11
-108.753358
 21
-108.097086
 31
0.0
  0
LINE
  5
1C1
100
AcDbEntity
  8
0
390
0
  6
Continuous
 62
     7
100
AcDbLine
 10
-108.753358
 20
-108.097086
 30
0.0
 11
-109.384885
 21
-108.097086
 31
0.0
  0
LINE
  5
1C2
100
AcDbEntity
  8
0
390
0
  6
Continuous
 62
     7
100
AcDbLine
 10
-109.384885
 20
-108.097086
 30
0.0
 11
-109.929646
 21
-108.097086
 31
0.0
  0
LINE
  5
1C3
100
AcDbEntity
  8
0
390
0
  6
Continuous
 62
     7
100
AcDbLine
 10
-109.929646
 20
-108.097086
 30
0.0
 11
-110.395958
 21
-108.097086
 31
0.0
  0
LINE
  5
1C4
100
AcDbEntity
  8
0
390
0
  6
Continuous
 62
     7
100
AcDbLine
 10
-110.395958
 20
-108.097086
 30
0.0
 11
-110.509553
 21
-108.097086
 31
0.0
  0
LINE
  5
1C5
100
AcDbEntity
  8
0
390
0
  6
Continuous
 62
     7
100
AcDbLine
 10
-110.509553
 20
-108.097086
 30
0.0
 11
-110.605902
 21
-108.097086
 31
0.0
  0
LINE
  5
1C6
100
AcDbEntity
  8
0
390
0
  6
Continuous
 62
     7
100
AcDbLine
 10
-110.605902
 20
-108.097086
 30
0.0
 11
-111.460921
 21
-108.097086
 31
0.0
  0
LINE
  5
1C7
100
AcDbEntity
  8
0
390
0
  6
Continuous
 62
     7
100
AcDbLine
 10
-111.460921
 20
-108.097086
 30
0.0
 11
-111.995183
 21
-108.097086
 31
0.0
  0
LINE
  5
1C8
100
AcDbEntity
  8
0
390
0
  6
Continuous
 62
     7
100
AcDbLine
 10
-111.995183
 20
-108.097086
 30
0.0
 11
-112.606909
 21
-108.097086
 31
0.0
  0
LINE
  5
1C9
100
AcDbEntity
  8
0
390
0
  6
Continuous
 62
     7
100
AcDbLine
 10
-112.606909
 20
-108.097086
 30
0.0
 11
-112.996995
 21
-108.097086
 31
0.0
  0
LINE
  5
1CA
100
AcDbEntity
  8
0
390
0
  6
Continuous
 62
     7
100
AcDbLine
 10
-120.546995
 20
-109.897086
 30
0.0
 11
117.453005
 21
-109.897082
 31
0.0
  0
LINE
  5
1CB
100
AcDbEntity
  8
0
390
0
  6
Continuous
 62
     7
100
AcDbLine
 10
117.453005
 20
-109.897082
 30
0.0
 11
122.901603
 21
-109.897082
 31
0.0
  0
LINE
  5
1CC
100
AcDbEntity
  8
0
390
0
  6
Continuous
 62
     7
100
AcDbLine
 10
122.901603
 20
-109.897082
 30
0.0
 11
123.699154
 21
-109.897081
 31
0.0
  0
LINE
  5
1CD
100
AcDbEntity
  8
0
390
0
  6
Continuous
 62
     7
100
AcDbLine
 10
123.699154
 20
-109.897081
 30
0.0
 11
124.08713
 21
-109.897081
 31
0.0
  0
LINE
  5
1CE
100
AcDbEntity
  8
0
390
0
  6
Continuous
 62
     7
100
AcDbLine
 10
124.08713
 20
-109.897081
 30
0.0
 11
124.381911
 21
-109.897081
 31
0.0
  0
LINE
  5
1CF
100
AcDbEntity
  8
0
390
0
  6
Continuous
 62
     7
100
AcDbLine
 10
124.381911
 20
-109.897081
 30
0.0
 11
124.766494
 21
-109.897081
 31
0.0
  0
LINE
  5
1D0
100
AcDbEntity
  8
0
390
0
  6
Continuous
 62
     7
100
AcDbLine
 10
124.766494
 20
-109.897081
 30
0.0
 11
126.325243
 21
-109.897081
 31
0.0
  0
LINE
  5
1D1
100
AcDbEntity
  8
0
390
0
  6
Continuous
 62
     7
100
AcDbLine
 10
126.325243
 20
-109.897081
 30
0.0
 11
126.709031
 21
-109.897081
 31
0.0
  0
LINE
  5
1D2
100
AcDbEntity
  8
0
390
0
  6
Continuous
 62
     7
100
AcDbLine
 10
126.709031
 20
-109.897081
 30
0.0
 11
126.968804
 21
-109.897081
 31
0.0
  0
LINE
  5
1D3
100
AcDbEntity
  8
0
390
0
  6
Continuous
 62
     7
100
AcDbLine
 10
126.968804
 20
-109.897081
 30
0.0
 11
129.207539
 21
-109.897081
 31
0.0
  0
LINE
  5
1D4
100
AcDbEntity
  8
0
390
0
  6
Continuous
 62
     7
100
AcDbLine
 10
129.207539
 20
-109.897081
 30
0.0
 11
129.499231
 21
-109.897081
 31
0.0
  0
LINE
  5
1D5
100
AcDbEntity
  8
0
390
0
  6
Continuous
 62
     7
100
AcDbLine
 10
129.499231
 20
-109.897081
 30
0.0
 11
132.435449
 21
-109.897081
 31
0.0
  0
LINE
  5
1D6
100
AcDbEntity
  8
0
390
0
  6
Continuous
 62
     7
100
AcDbLine
 10
132.435449
 20
-109.897081
 30
0.0
 11
132.453005
 21
-109.897081
 31
0.0
  0
LINE
  5
1D7
100
AcDbEntity
  8
0
390
0
  6
Continuous
 62
     7
100
AcDbLine
 10
132.453005
 20
-109.897081
 30
0.0
 11
131.401014
 21
-109.897081
 31
0.0
  0
LINE
  5
1D8
100
AcDbEntity
  8
0
390
0
  6
Continuous
 62
     7
100
AcDbLine
 10
131.401014
 20
-109.897081
 30
0.0
 11
131.229105
 21
-109.897081
 31
0.0
  0
LINE
  5
1D9
100
AcDbEntity
  8
0
390
0
  6
Continuous
 62
     7
100
AcDbLine
 10
131.229105
 20
-109.897081
 30
0.0
 11
130.973414
 21
-109.897081
 31
0.0
  0
LINE
  5
1DA
100
AcDbEntity
  8
0
390
0
  6
Continuous
 62
     7
100
AcDbLine
 10
130.973414
 20
-109.897081
 30
0.0
 11
130.906443
 21
-109.897081
 31
0.0
  0
LINE
  5
1DB
100
AcDbEntity
  8
0
390
0
  6
Continuous
 62
     7
100
AcDbLine
 10
130.906443
 20
-109.897081
 30
0.0
 11
130.549593
 21
-109.897081
 31
0.0
  0
LINE
  5
1DC
100
AcDbEntity
  8
0
390
0
  6
Continuous
 62
     7
100
AcDbLine
 10
130.549593
 20
-109.897081
 30
0.0
 11
130.114864
 21
-109.897081
 31
0.0
  0
LINE
  5
1DD
100
AcDbEntity
  8
0
390
0
  6
Continuous
 62
     7
100
AcDbLine
 10
130.114864
 20
-109.897081
 30
0.0
 11
129.716431
 21
-109.897081
 31
0.0
  0
LINE
  5
1DE
100
AcDbEntity
  8
0
390
0
  6
Continuous
 62
     7
100
AcDbLine
 10
129.716431
 20
-109.897081
 30
0.0
 11
129.547868
 21
-109.897081
 31
0.0
  0
LINE
  5
1DF
100
AcDbEntity
  8
0
390
0
  6
Continuous
 62
     7
100
AcDbLine
 10
129.547868
 20
-109.897081
 30
0.0
 11
129.256965
 21
-109.897081
 31
0.0
  0
LINE
  5
1E0
100
AcDbEntity
  8
0
390
0
  6
Continuous
 62
     7
100
AcDbLine
 10
129.256965
 20
-109.897081
 30
0.0
 11
129.083163
 21
-109.897081
 31
0.0
  0
LINE
  5
1E1
100
AcDbEntity
  8
0
390
0
  6
Continuous
 62
     7
100
AcDbLine
 10
129.083163
 20
-109.897081
 30
0.0
 11
128.733287
 21
-109.897081
 31
0.0
  0
LINE
  5
1E2
100
AcDbEntity
  8
0
390
0
  6
Continuous
 62
     7
100
AcDbLine
 10
128.733287
 20
-109.897081
 30
0.0
 11
127.823382
 21
-109.897081
 31
0.0
  0
LINE
  5
1E3
100
AcDbEntity
  8
0
390
0
  6
Continuous
 62
     7
100
AcDbLine
 10
127.823382
 20
-109.897081
 30
0.0
 11
127.639092
 21
-109.897081
 31
0.0
  0
LINE
  5
1E4
100
AcDbEntity
  8
0
390
0
  6
Continuous
 62
     7
100
AcDbLine
 10
127.639092
 20
-109.897081
 30
0.0
 11
126.836191
 21
-109.897081
 31
0.0
  0
LINE
  5
1E5
100
AcDbEntity
  8
0
390
0
  6
Continuous
 62
     7
100
AcDbLine
 10
126.836191
 20
-109.897081
 30
0.0
 11
126.77161
 21
-109.897081
 31
0.0
  0
LINE
  5
1E6
100
AcDbEntity
  8
0
390
0
  6
Continuous
 62
     7
100
AcDbLine
 10
126.77161
 20
-109.897081
 30
0.0
 11
126.391266
 21
-109.897081
 31
0.0
  0
LINE
  5
1E7
100
AcDbEntity
  8
0
390
0
  6
Continuous
 62
     7
100
AcDbLine
 10
126.391266
 20
-109.897081
 30
0.0
 11
125.489881
 21
-109.897081
 31
0.0
  0
LINE
  5
1E8
100
AcDbEntity
  8
0
390
0
  6
Continuous
 62
     7
100
AcDbLine
 10
125.489881
 20
-109.897081
 30
0.0
 11
123.413613
 21
-109.897081
 31
0.0
  0
LINE
  5
1E9
100
AcDbEntity
  8
0
390
0
  6
Continuous
 62
     7
100
AcDbLine
 10
123.413613
 20
-109.897081
 30
0.0
 11
122.975027
 21
-109.897081
 31
0.0
  0
LINE
  5
1EA
100
AcDbEntity
  8
0
390
0
  6
Continuous
 62
     7
100
AcDbLine
 10
122.975027
 20
-109.897081
 30
0.0
 11
122.899956
 21
-109.897081
 31
0.0
  0
LINE
  5
1EB
100
AcDbEntity
  8
0
390
0
  6
Continuous
 62
     7
100
AcDbLine
 10
-121.597339
 20
-109.897086
 30
0.0
 11
-122.846063
 21
-109.897086
 31
0.0
  0
LINE
  5
1EC
100
AcDbEntity
  8
0
390
0
  6
Continuous
 62
     7
100
AcDbLine
 10
-122.846063
 20
-109.897086
 30
0.0
 11
-123.733351
 21
-109.897086
 31
0.0
  0
LINE
  5
1ED
100
AcDbEntity
  8
0
390
0
  6
Continuous
 62
     7
100
AcDbLine
 10
-123.733351
 20
-109.897086
 30
0.0
 11
-123.819785
 21
-109.897086
 31
0.0
  0
LINE
  5
1EE
100
AcDbEntity
  8
0
390
0
  6
Continuous
 62
     7
100
AcDbLine
 10
-123.819785
 20
-109.897086
 30
0.0
 11
-125.497843
 21
-109.897086
 31
0.0
  0
LINE
  5
1EF
100
AcDbEntity
  8
0
390
0
  6
Continuous
 62
     7
100
AcDbLine
 10
-125.497843
 20
-109.897086
 30
0.0
 11
-126.065645
 21
-109.897086
 31
0.0
  0
LINE
  5
1F0
100
AcDbEntity
  8
0
390
0
  6
Continuous
 62
     7
100
AcDbLine
 10
-126.065645
 20
-109.897086
 30
0.0
 11
-126.503854
 21
-109.897086
 31
0.0
  0
LINE
  5
1F1
100
AcDbEntity
  8
0
390
0
  6
Continuous
 62
     7
100
AcDbLine
 10
-126.503854
 20
-109.897086
 30
0.0
 11
-127.18884
 21
-109.897086
 31
0.0
  0
LINE
  5
1F2
100
AcDbEntity
  8
0
390
0
  6
Continuous
 62
     7
100
AcDbLine
 10
-127.18884
 20
-109.897086
 30
0.0
 11
-130.07228
 21
-109.897087
 31
0.0
  0
LINE
  5
1F3
100
AcDbEntity
  8
0
390
0
  6
Continuous
 62
     7
100
AcDbLine
 10
-130.07228
 20
-109.897087
 30
0.0
 11
-130.463513
 21
-109.897087
 31
0.0
  0
LINE
  5
1F4
100
AcDbEntity
  8
0
390
0
  6
Continuous
 62
     7
100
AcDbLine
 10
-130.463513
 20
-109.897087
 30
0.0
 11
-131.384723
 21
-109.897087
 31
0.0
  0
LINE
  5
1F5
100
AcDbEntity
  8
0
390
0
  6
Continuous
 62
     7
100
AcDbLine
 10
-131.384723
 20
-109.897087
 30
0.0
 11
-133.852832
 21
-109.897087
 31
0.0
  0
LINE
  5
1F6
100
AcDbEntity
  8
0
390
0
  6
Continuous
 62
     7
100
AcDbLine
 10
-133.852832
 20
-109.897087
 30
0.0
 11
-134.311927
 21
-109.897087
 31
0.0
  0
LINE
  5
1F7
100
AcDbEntity
  8
0
390
0
  6
Continuous
 62
     7
100
AcDbLine
 10
-134.311927
 20
-109.897087
 30
0.0
 11
-134.493548
 21
-109.897087
 31
0.0
  0
LINE
  5
1F8
100
AcDbEntity
  8
0
390
0
  6
Continuous
 62
     7
100
AcDbLine
 10
-134.493548
 20
-109.897087
 30
0.0
 11
-134.590961
 21
-109.897087
 31
0.0
  0
LINE
  5
1F9
100
AcDbEntity
  8
0
390
0
  6
Continuous
 62
     7
100
AcDbLine
 10
-134.590961
 20
-109.897087
 30
0.0
 11
-134.759917
 21
-109.897087
 31
0.0
  0
LINE
  5
1FA
100
AcDbEntity
  8
0
390
0
  6
Continuous
 62
     7
100
AcDbLine
 10
-134.759917
 20
-109.897087
 30
0.0
 11
-135.037033
 21
-109.897087
 31
0.0
  0
LINE
  5
1FB
100
AcDbEntity
  8
0
390
0
  6
Continuous
 62
     7
100
AcDbLine
 10
-135.037033
 20
-109.897087
 30
0.0
 11
-135.121279
 21
-109.897087
 31
0.0
  0
LINE
  5
1FC
100
AcDbEntity
  8
0
390
0
  6
Continuous
 62
     7
100
AcDbLine
 10
-135.121279
 20
-109.897087
 30
0.0
 11
-135.449483
 21
-109.897087
 31
0.0
  0
LINE
  5
1FD
100
AcDbEntity
  8
0
390
0
  6
Continuous
 62
     7
100
AcDbLine
 10
-135.449483
 20
-109.897087
 30
0.0
 11
-135.546995
 21
-109.897087
 31
0.0
  0
LINE
  5
1FE
100
AcDbEntity
  8
0
390
0
  6
Continuous
 62
     7
100
AcDbLine
 10
-135.546995
 20
-109.897087
 30
0.0
 11
-134.49507
 21
-109.897087
 31
0.0
  0
LINE
  5
1FF
100
AcDbEntity
  8
0
390
0
  6
Continuous
 62
     7
100
AcDbLine
 10
-134.49507
 20
-109.897087
 30
0.0
 11
-134.313309
 21
-109.897087
 31
0.0
  0
LINE
  5
200
100
AcDbEntity
  8
0
390
0
  6
Continuous
 62
     7
100
AcDbLine
 10
-134.313309
 20
-109.897087
 30
0.0
 11
-133.987643
 21
-109.897087
 31
0.0
  0
LINE
  5
201
100
AcDbEntity
  8
0
390
0
  6
Continuous
 62
     7
100
AcDbLine
 10
-133.987643
 20
-109.897087
 30
0.0
 11
-132.135221
 21
-109.897087
 31
0.0
  0
LINE
  5
202
100
AcDbEntity
  8
0
390
0
  6
Continuous
 62
     7
100
AcDbLine
 10
-132.135221
 20
-109.897087
 30
0.0
 11
-131.800311
 21
-109.897087
 31
0.0
  0
LINE
  5
203
100
AcDbEntity
  8
0
390
0
  6
Continuous
 62
     7
100
AcDbLine
 10
-131.800311
 20
-109.897087
 30
0.0
 11
-129.866676
 21
-109.897087
 31
0.0
  0
LINE
  5
204
100
AcDbEntity
  8
0
390
0
  6
Continuous
 62
     7
100
AcDbLine
 10
-129.866676
 20
-109.897087
 30
0.0
 11
-129.484175
 21
-109.897087
 31
0.0
  0
LINE
  5
205
100
AcDbEntity
  8
0
390
0
  6
Continuous
 62
     7
100
AcDbLine
 10
-129.484175
 20
-109.897087
 30
0.0
 11
-125.818221
 21
-109.897086
 31
0.0
  0
LINE
  5
206
100
AcDbEntity
  8
0
390
0
  6
Continuous
 62
     7
100
AcDbLine
 10
-125.818221
 20
-109.897086
 30
0.0
 11
-125.338754
 21
-109.897086
 31
0.0
  0
LINE
  5
207
100
AcDbEntity
  8
0
390
0
  6
Continuous
 62
     7
100
AcDbLine
 10
-125.338754
 20
-109.897086
 30
0.0
 11
-122.007523
 21
-109.897086
 31
0.0
  0
LINE
  5
208
100
AcDbEntity
  8
0
390
0
  6
Continuous
 62
     7
100
AcDbLine
 10
-122.007523
 20
-109.897086
 30
0.0
 11
-121.48856
 21
-109.897086
 31
0.0
  0
LINE
  5
209
100
AcDbEntity
  8
0
390
0
  6
Continuous
 62
     7
100
AcDbLine
 10
-121.48856
 20
-109.897086
 30
0.0
 11
-120.546995
 21
-109.897086
 31
0.0
  0
LINE
  5
20A
100
AcDbEntity
  8
0
390
0
  6
Continuous
 62
     7
100
AcDbLine
 10
122.903005
 20
-109.897081
 30
0.0
 11
121.563469
 21
-109.897082
 31
0.0
  0
LINE
  5
20B
100
AcDbEntity
  8
0
390
0
  6
Continuous
 62
     7
100
AcDbLine
 10
121.563469
 20
-109.897082
 30
0.0
 11
120.240587
 21
-109.897082
 31
0.0
  0
LINE
  5
20C
100
AcDbEntity
  8
0
390
0
  6
Continuous
 62
     7
100
AcDbLine
 10
120.240587
 20
-109.897082
 30
0.0
 11
119.702
 21
-109.897082
 31
0.0
  0
LINE
  5
20D
100
AcDbEntity
  8
0
390
0
  6
Continuous
 62
     7
100
AcDbLine
 10
119.702
 20
-109.897082
 30
0.0
 11
117.486668
 21
-109.897082
 31
0.0
  0
LINE
  5
20E
100
AcDbEntity
  8
0
390
0
  6
Continuous
 62
     7
100
AcDbLine
 10
117.486668
 20
-109.897082
 30
0.0
 11
117.420063
 21
-109.897082
 31
0.0
  0
LINE
  5
20F
100
AcDbEntity
  8
0
390
0
  6
Continuous
 62
     7
100
AcDbLine
 10
116.750188
 20
-109.897082
 30
0.0
 11
115.696982
 21
-109.897082
 31
0.0
  0
LINE
  5
210
100
AcDbEntity
  8
0
390
0
  6
Continuous
 62
     7
100
AcDbLine
 10
115.696982
 20
-109.897082
 30
0.0
 11
115.242812
 21
-109.897082
 31
0.0
  0
LINE
  5
211
100
AcDbEntity
  8
0
390
0
  6
Continuous
 62
     7
100
AcDbLine
 10
115.242812
 20
-109.897082
 30
0.0
 11
115.092719
 21
-109.897082
 31
0.0
  0
LINE
  5
212
100
AcDbEntity
  8
0
390
0
  6
Continuous
 62
     7
100
AcDbLine
 10
115.092719
 20
-109.897082
 30
0.0
 11
113.783926
 21
-109.897082
 31
0.0
  0
LINE
  5
213
100
AcDbEntity
  8
0
390
0
  6
Continuous
 62
     7
100
AcDbLine
 10
113.783926
 20
-109.897082
 30
0.0
 11
112.8095
 21
-109.897082
 31
0.0
  0
LINE
  5
214
100
AcDbEntity
  8
0
390
0
  6
Continuous
 62
     7
100
AcDbLine
 10
112.8095
 20
-109.897082
 30
0.0
 11
112.14256
 21
-109.897082
 31
0.0
  0
LINE
  5
215
100
AcDbEntity
  8
0
390
0
  6
Continuous
 62
     7
100
AcDbLine
 10
112.14256
 20
-109.897082
 30
0.0
 11
112.03583
 21
-109.897082
 31
0.0
  0
LINE
  5
216
100
AcDbEntity
  8
0
390
0
  6
Continuous
 62
     7
100
AcDbLine
 10
112.03583
 20
-109.897082
 30
0.0
 11
111.91943
 21
-109.897082
 31
0.0
  0
LINE
  5
217
100
AcDbEntity
  8
0
390
0
  6
Continuous
 62
     7
100
AcDbLine
 10
111.91943
 20
-109.897082
 30
0.0
 11
111.0167
 21
-109.897082
 31
0.0
  0
LINE
  5
218
100
AcDbEntity
  8
0
390
0
  6
Continuous
 62
     7
100
AcDbLine
 10
111.0167
 20
-109.897082
 30
0.0
 11
109.263097
 21
-109.897082
 31
0.0
  0
LINE
  5
219
100
AcDbEntity
  8
0
390
0
  6
Continuous
 62
     7
100
AcDbLine
 10
109.263097
 20
-109.897082
 30
0.0
 11
109.204742
 21
-109.897082
 31
0.0
  0
LINE
  5
21A
100
AcDbEntity
  8
0
390
0
  6
Continuous
 62
     7
100
AcDbLine
 10
109.204742
 20
-109.897082
 30
0.0
 11
109.103005
 21
-109.897082
 31
0.0
  0
LINE
  5
21B
100
AcDbEntity
  8
0
390
0
  6
Continuous
 62
     7
100
AcDbLine
 10
-110.376694
 20
-109.897086
 30
0.0
 11
-109.98863
 21
-109.897086
 31
0.0
  0
LINE
  5
21C
100
AcDbEntity
  8
0
390
0
  6
Continuous
 62
     7
100
AcDbLine
 10
-109.98863
 20
-109.897086
 30
0.0
 11
-109.738683
 21
-109.897086
 31
0.0
  0
LINE
  5
21D
100
AcDbEntity
  8
0
390
0
  6
Continuous
 62
     7
100
AcDbLine
 10
-109.738683
 20
-109.897086
 30
0.0
 11
-108.502262
 21
-109.897086
 31
0.0
  0
LINE
  5
21E
100
AcDbEntity
  8
0
390
0
  6
Continuous
 62
     7
100
AcDbLine
 10
-108.502262
 20
-109.897086
 30
0.0
 11
-108.400801
 21
-109.897086
 31
0.0
  0
LINE
  5
21F
100
AcDbEntity
  8
0
390
0
  6
Continuous
 62
     7
100
AcDbLine
 10
-108.400801
 20
-109.897086
 30
0.0
 11
-108.178861
 21
-109.897086
 31
0.0
  0
LINE
  5
220
100
AcDbEntity
  8
0
390
0
  6
Continuous
 62
     7
100
AcDbLine
 10
-108.178861
 20
-109.897086
 30
0.0
 11
-107.0553
 21
-109.897086
 31
0.0
  0
LINE
  5
221
100
AcDbEntity
  8
0
390
0
  6
Continuous
 62
     7
100
AcDbLine
 10
-107.0553
 20
-109.897086
 30
0.0
 11
-106.937925
 21
-109.897086
 31
0.0
  0
LINE
  5
222
100
AcDbEntity
  8
0
390
0
  6
Continuous
 62
     7
100
AcDbLine
 10
-106.937925
 20
-109.897086
 30
0.0
 11
-106.794978
 21
-109.897086
 31
0.0
  0
LINE
  5
223
100
AcDbEntity
  8
0
390
0
  6
Continuous
 62
     7
100
AcDbLine
 10
-106.794978
 20
-109.897086
 30
0.0
 11
-106.64781
 21
-109.897086
 31
0.0
  0
LINE
  5
224
100
AcDbEntity
  8
0
390
0
  6
Continuous
 62
     7
100
AcDbLine
 10
-106.64781
 20
-109.897086
 30
0.0
 11
-106.496995
 21
-109.897086
 31
0.0
  0
LINE
  5
225
100
AcDbEntity
  8
0
390
0
  6
Continuous
 62
     7
100
AcDbLine
 10
-106.496995
 20
-109.897086
 30
0.0
 11
-106.720078
 21
-109.897086
 31
0.0
  0
LINE
  5
226
100
AcDbEntity
  8
0
390
0
  6
Continuous
 62
     7
100
AcDbLine
 10
-106.720078
 20
-109.897086
 30
0.0
 11
-107.371494
 21
-109.897086
 31
0.0
  0
LINE
  5
227
100
AcDbEntity
  8
0
390
0
  6
Continuous
 62
     7
100
AcDbLine
 10
-107.371494
 20
-109.897086
 30
0.0
 11
-107.842949
 21
-109.897086
 31
0.0
  0
LINE
  5
228
100
AcDbEntity
  8
0
390
0
  6
Continuous
 62
     7
100
AcDbLine
 10
-107.842949
 20
-109.897086
 30
0.0
 11
-109.046612
 21
-109.897086
 31
0.0
  0
LINE
  5
229
100
AcDbEntity
  8
0
390
0
  6
Continuous
 62
     7
100
AcDbLine
 10
-109.046612
 20
-109.897086
 30
0.0
 11
-109.997379
 21
-109.897086
 31
0.0
  0
LINE
  5
22A
100
AcDbEntity
  8
0
390
0
  6
Continuous
 62
     7
100
AcDbLine
 10
-109.997379
 20
-109.897086
 30
0.0
 11
-110.39616
 21
-109.897086
 31
0.0
  0
LINE
  5
22B
100
AcDbEntity
  8
0
390
0
  6
Continuous
 62
     7
100
AcDbLine
 10
-110.39616
 20
-109.897086
 30
0.0
 11
-111.049448
 21
-109.897086
 31
0.0
  0
LINE
  5
22C
100
AcDbEntity
  8
0
390
0
  6
Continuous
 62
     7
100
AcDbLine
 10
-111.049448
 20
-109.897086
 30
0.0
 11
-111.460921
 21
-109.897086
 31
0.0
  0
LINE
  5
22D
100
AcDbEntity
  8
0
390
0
  6
Continuous
 62
     7
100
AcDbLine
 10
-111.460921
 20
-109.897086
 30
0.0
 11
-112.713638
 21
-109.897086
 31
0.0
  0
LINE
  5
22E
100
AcDbEntity
  8
0
390
0
  6
Continuous
 62
     7
100
AcDbLine
 10
-112.713638
 20
-109.897086
 30
0.0
 11
-112.996995
 21
-109.897086
 31
0.0
  0
LINE
  5
22F
100
AcDbEntity
  8
0
390
0
  6
Continuous
 62
     7
100
AcDbLine
 10
-118.996995
 20
-109.897086
 30
0.0
 11
-119.637301
 21
-109.897086
 31
0.0
  0
LINE
  5
230
100
AcDbEntity
  8
0
390
0
  6
Continuous
 62
     7
100
AcDbLine
 10
-119.637301
 20
-109.897086
 30
0.0
 11
-120.420391
 21
-109.897086
 31
0.0
  0
LINE
  5
231
100
AcDbEntity
  8
0
390
0
  6
Continuous
 62
     7
100
AcDbLine
 10
-120.420391
 20
-109.897086
 30
0.0
 11
-120.511096
 21
-109.897086
 31
0.0
  0
LINE
  5
232
100
AcDbEntity
  8
0
390
0
  6
Continuous
 62
     7
100
AcDbLine
 10
-120.511096
 20
-109.897086
 30
0.0
 11
-120.560915
 21
-109.897086
 31
0.0
  0
LINE
  5
233
100
AcDbEntity
  8
0
390
0
  6
Continuous
 62
     7
100
AcDbLine
 10
-120.560915
 20
-109.897086
 30
0.0
 11
-121.184267
 21
-109.897086
 31
0.0
  0
LINE
  5
234
100
AcDbEntity
  8
0
390
0
  6
Continuous
 62
     7
100
AcDbLine
 10
-121.184267
 20
-109.897086
 30
0.0
 11
-121.334736
 21
-109.897086
 31
0.0
  0
LINE
  5
235
100
AcDbEntity
  8
0
390
0
  6
Continuous
 62
     7
100
AcDbLine
 10
-121.334736
 20
-109.897086
 30
0.0
 11
-122.00536
 21
-109.897086
 31
0.0
  0
LINE
  5
236
100
AcDbEntity
  8
0
390
0
  6
Continuous
 62
     7
100
AcDbLine
 10
-122.00536
 20
-109.897086
 30
0.0
 11
-123.068983
 21
-109.897086
 31
0.0
  0
LINE
  5
237
100
AcDbEntity
  8
0
390
0
  6
Continuous
 62
     7
100
AcDbLine
 10
-123.068983
 20
-109.897086
 30
0.0
 11
-124.320718
 21
-109.897086
 31
0.0
  0
LINE
  5
238
100
AcDbEntity
  8
0
390
0
  6
Continuous
 62
     7
100
AcDbLine
 10
-124.320718
 20
-109.897086
 30
0.0
 11
-124.764103
 21
-109.897086
 31
0.0
  0
LINE
  5
239
100
AcDbEntity
  8
0
390
0
  6
Continuous
 62
     7
100
AcDbLine
 10
-124.764103
 20
-109.897086
 30
0.0
 11
-124.880194
 21
-109.897086
 31
0.0
  0
LINE
  5
23A
100
AcDbEntity
  8
0
390
0
  6
Continuous
 62
     7
100
AcDbLine
 10
-124.880194
 20
-109.897086
 30
0.0
 11
-125.496995
 21
-109.897086
 31
0.0
  0
LINE
  5
23B
100
AcDbEntity
  8
0
390
0
  6
Continuous
 62
     7
100
AcDbLine
 10
-125.496995
 20
-109.897086
 30
0.0
 11
-125.495455
 21
-109.897086
 31
0.0
  0
LINE
  5
23C
100
AcDbEntity
  8
0
390
0
  6
Continuous
 62
     7
100
AcDbLine
 10
-125.495455
 20
-109.897086
 30
0.0
 11
-124.622497
 21
-109.897086
 31
0.0
  0
LINE
  5
23D
100
AcDbEntity
  8
0
390
0
  6
Continuous
 62
     7
100
AcDbLine
 10
-124.622497
 20
-109.897086
 30
0.0
 11
-124.54999
 21
-109.897086
 31
0.0
  0
LINE
  5
23E
100
AcDbEntity
  8
0
390
0
  6
Continuous
 62
     7
100
AcDbLine
 10
-124.54999
 20
-109.897086
 30
0.0
 11
-123.489963
 21
-109.897086
 31
0.0
  0
LINE
  5
23F
100
AcDbEntity
  8
0
390
0
  6
Continuous
 62
     7
100
AcDbLine
 10
-123.489963
 20
-109.897086
 30
0.0
 11
-121.615033
 21
-109.897086
 31
0.0
  0
LINE
  5
240
100
AcDbEntity
  8
0
390
0
  6
Continuous
 62
     7
100
AcDbLine
 10
108.403005
 20
-107.097084
 30
0.0
 11
108.403005
 21
-30.813266
 31
0.0
  0
LINE
  5
241
100
AcDbEntity
  8
0
390
0
  6
Continuous
 62
     7
100
AcDbLine
 10
108.403005
 20
-30.813266
 30
0.0
 11
108.403005
 21
-7.075728
 31
0.0
  0
POLYLINE
  5
242
100
AcDbEntity
  8
0
390
0
  6
Continuous
 62
     7
100
AcDb2dPolyline
 66
     1
 10
0.0
 20
0.0
 30
0.0
 40
0.1
 41
0.1
  0
VERTEX
  5
243
100
AcDbEntity
  8
0
390
0
 62
     7
100
AcDbVertex
100
AcDb2dVertex
 10
108.403005
 20
-7.075728
 30
0.0
 42
0.075321
  0
VERTEX
  5
244
100
AcDbEntity
  8
0
390
0
 62
     7
100
AcDbVertex
100
AcDb2dVertex
 10
104.703865
 20
28.053683
 30
0.0
 42
0.876971
  0
VERTEX
  5
245
100
AcDbEntity
  8
0
390
0
 62
     7
100
AcDbVertex
100
AcDb2dVertex
 10
-108.396995
 20
0.002916
 30
0.0
  0
VERTEX
  5
246
100
AcDbEntity
  8
0
390
0
 62
     7
100
AcDbVertex
100
AcDb2dVertex
 10
-108.396995
 20
-107.097084
 30
0.0
  0
SEQEND
  5
247
100
AcDbEntity
  8
0
390
0
  0
LINE
  5
248
100
AcDbEntity
  8
0
390
0
  6
Continuous
 62
     7
100
AcDbLine
 10
123.803005
 20
-107.097084
 30
0.0
 11
110.603005
 21
-107.097084
 31
0.0
  0
LINE
  5
249
100
AcDbEntity
  8
0
390
0
  6
Continuous
 62
     7
100
AcDbLine
 10
-110.596995
 20
-107.097084
 30
0.0
 11
-123.796995
 21
-107.097084
 31
0.0
  0
POLYLINE
  5
24A
100
AcDbEntity
  8
0
390
0
  6
Continuous
 62
     7
100
AcDb2dPolyline
 66
     1
 10
0.0
 20
0.0
 30
0.0
 40
0.1
 41
0.1
  0
VERTEX
  5
24B
100
AcDbEntity
  8
0
390
0
 62
     7
100
AcDbVertex
100
AcDb2dVertex
 10
110.603005
 20
-107.097084
 30
0.0
  0
VERTEX
  5
24C
100
AcDbEntity
  8
0
390
0
 62
     7
100
AcDbVertex
100
AcDb2dVertex
 10
110.603005
 20
0.002916
 30
0.0
 42
1.0
  0
VERTEX
  5
24D
100
AcDbEntity
  8
0
390
0
 62
     7
100
AcDbVertex
100
AcDb2dVertex
 10
-110.596995
 20
0.002916
 30
0.0
  0
VERTEX
  5
24E
100
AcDbEntity
  8
0
390
0
 62
     7
100
AcDbVertex
100
AcDb2dVertex
 10
-110.596995
 20
-7.075727
 30
0.0
  0
SEQEND
  5
24F
100
AcDbEntity
  8
0
390
0
  0
LINE
  5
250
100
AcDbEntity
  8
0
390
0
  6
Continuous
 62
     7
100
AcDbLine
 10
-110.596995
 20
-7.075727
 30
0.0
 11
-110.596995
 21
-30.813322
 31
0.0
  0
LINE
  5
251
100
AcDbEntity
  8
0
390
0
  6
Continuous
 62
     7
100
AcDbLine
 10
-110.596995
 20
-30.813322
 30
0.0
 11
-110.596995
 21
-107.097084
 31
0.0
  0
LINE
  5
252
100
AcDbEntity
  8
0
390
0
  6
Continuous
 62
     7
100
AcDbLine
 10
-110.596995
 20
-107.097084
 30
0.0
 11
-108.396995
 21
-107.097084
 31
0.0
  0
LINE
  5
253
100
AcDbEntity
  8
0
390
0
  6
Continuous
 62
     7
100
AcDbLine
 10
108.403005
 20
-7.076065
 30
0.0
 11
108.403005
 21
-30.813266
 31
0.0
  0
LINE
  5
254
100
AcDbEntity
  8
0
390
0
  6
Continuous
 62
     7
100
AcDbLine
 10
108.403005
 20
-30.813266
 30
0.0
 11
108.403005
 21
-107.097084
 31
0.0
  0
LINE
  5
255
100
AcDbEntity
  8
0
390
0
  6
Continuous
 62
     7
100
AcDbLine
 10
108.403005
 20
-107.097084
 30
0.0
 11
110.603005
 21
-107.097084
 31
0.0
  0
LINE
  5
256
100
AcDbEntity
  8
0
390
0
  6
Continuous
 62
     7
100
AcDbLine
 10
-110.596995
 20
-7.076065
 30
0.0
 11
-110.596995
 21
-30.813322
 31
0.0
  0
LINE
  5
257
100
AcDbEntity
  8
0
390
0
  6
Continuous
 62
     7
100
AcDbLine
 10
-110.596995
 20
-30.813322
 30
0.0
 11
-110.596995
 21
-107.097084
 31
0.0
  0
LINE
  5
258
100
AcDbEntity
  8
0
390
0
  6
Continuous
 62
     7
100
AcDbLine
 10
108.403005
 20
-107.097084
 30
0.0
 11
110.603005
 21
-107.097084
 31
0.0
  0
LINE
  5
259
100
AcDbEntity
  8
0
390
0
  6
Continuous
 62
     7
100
AcDbLine
 10
110.603005
 20
-107.097084
 30
0.0
 11
110.6036
 21
-107.097084
 31
0.0
  0
LINE
  5
25A
100
AcDbEntity
  8
0
390
0
  6
Continuous
 62
     7
100
AcDbLine
 10
110.6036
 20
-107.097084
 30
0.0
 11
123.802648
 21
-107.097084
 31
0.0
  0
LINE
  5
25B
100
AcDbEntity
  8
0
390
0
  6
Continuous
 62
     7
100
AcDbLine
 10
-123.796648
 20
-107.097084
 30
0.0
 11
-110.596995
 21
-107.097084
 31
0.0
  0
LINE
  5
25C
100
AcDbEntity
  8
0
390
0
  6
Continuous
 62
     7
100
AcDbLine
 10
-110.596995
 20
-107.097084
 30
0.0
 11
-108.396995
 21
-107.097084
 31
0.0
  0
LINE
  5
25D
100
AcDbEntity
  8
0
390
0
  6
Continuous
 62
     7
100
AcDbLine
 10
-109.746995
 20
-155.597084
 30
0.0
 11
-122.246995
 21
-155.597084
 31
0.0
  0
LINE
  5
25E
100
AcDbEntity
  8
0
390
0
  6
Continuous
 62
     7
100
AcDbLine
 10
-122.246995
 20
-155.597084
 30
0.0
 11
-109.746995
 21
-155.597084
 31
0.0
  0
LINE
  5
25F
100
AcDbEntity
  8
0
390
0
  6
Continuous
 62
     7
100
AcDbLine
 10
-122.246995
 20
-115.597084
 30
0.0
 11
-122.110695
 21
-115.597084
 31
0.0
  0
LINE
  5
260
100
AcDbEntity
  8
0
390
0
  6
Continuous
 62
     7
100
AcDbLine
 10
-109.884094
 20
-115.597084
 30
0.0
 11
-109.746995
 21
-115.597084
 31
0.0
  0
LINE
  5
261
100
AcDbEntity
  8
0
390
0
  6
Continuous
 62
     7
100
AcDbLine
 10
109.753005
 20
-155.597084
 30
0.0
 11
122.253005
 21
-155.597084
 31
0.0
  0
LINE
  5
262
100
AcDbEntity
  8
0
390
0
  6
Continuous
 62
     7
100
AcDbLine
 10
122.253005
 20
-115.597084
 30
0.0
 11
109.753005
 21
-115.597084
 31
0.0
  0
LINE
  5
263
100
AcDbEntity
  8
0
390
0
  6
Continuous
 62
     7
100
AcDbLine
 10
109.753005
 20
-155.597084
 30
0.0
 11
122.253005
 21
-155.597084
 31
0.0
  0
LINE
  5
264
100
AcDbEntity
  8
0
390
0
  6
Continuous
 62
     7
100
AcDbLine
 10
103.878649
 20
-124.081856
 30
0.0
 11
106.503005
 21
-125.597084
 31
0.0
  0
LINE
  5
265
100
AcDbEntity
  8
0
390
0
  6
Continuous
 62
     7
100
AcDbLine
 10
125.503005
 20
-125.597084
 30
0.0
 11
128.127361
 21
-124.081856
 31
0.0
  0
LINE
  5
266
100
AcDbEntity
  8
0
390
0
  6
Continuous
 62
     7
100
AcDbLine
 10
-128.121351
 20
-124.081856
 30
0.0
 11
-125.496995
 21
-125.597084
 31
0.0
  0
LINE
  5
267
100
AcDbEntity
  8
0
390
0
  6
Continuous
 62
     7
100
AcDbLine
 10
-106.496995
 20
-125.597084
 30
0.0
 11
-103.872639
 21
-124.081856
 31
0.0
  0
LINE
  5
268
100
AcDbEntity
  8
0
390
0
  6
Continuous
 62
     7
100
AcDbLine
 10
109.103005
 20
-109.897081
 30
0.0
 11
109.103005
 21
-111.597082
 31
0.0
  0
LINE
  5
269
100
AcDbEntity
  8
0
390
0
  6
Continuous
 62
     7
100
AcDbLine
 10
122.903005
 20
-111.597082
 30
0.0
 11
122.903005
 21
-109.897081
 31
0.0
  0
POLYLINE
  5
26A
100
AcDbEntity
  8
0
390
0
  6
Continuous
 62
     7
100
AcDb2dPolyline
 66
     1
 10
0.0
 20
0.0
 30
0.0
 40
0.1
 41
0.1
  0
VERTEX
  5
26B
100
AcDbEntity
  8
0
390
0
 62
     7
100
AcDbVertex
100
AcDb2dVertex
 10
123.803005
 20
-107.097084
 30
0.0
 42
0.002027
  0
VERTEX
  5
26C
100
AcDbEntity
  8
0
390
0
 62
     7
100
AcDbVertex
100
AcDb2dVertex
 10
123.799181
 20
0.970579
 30
0.0
 42
0.999261
  0
VERTEX
  5
26D
100
AcDbEntity
  8
0
390
0
 62
     7
100
AcDbVertex
100
AcDb2dVertex
 10
-123.796995
 20
-0.799246
 30
0.0
  0
VERTEX
  5
26E
100
AcDbEntity
  8
0
390
0
 62
     7
100
AcDbVertex
100
AcDb2dVertex
 10
-123.796995
 20
-107.097084
 30
0.0
  0
SEQEND
  5
26F
100
AcDbEntity
  8
0
390
0
  0
LINE
  5
270
100
AcDbEntity
  8
0
390
0
  6
Continuous
 62
     7
100
AcDbLine
 10
121.603005
 20
-115.597084
 30
0.0
 11
121.603005
 21
-111.553139
 31
0.0
  0
LINE
  5
271
100
AcDbEntity
  8
0
390
0
  6
Continuous
 62
     7
100
AcDbLine
 10
121.603005
 20
-108.051042
 30
0.0
 11
121.603005
 21
-107.155989
 31
0.0
  0
LINE
  5
272
100
AcDbEntity
  8
0
390
0
  6
Continuous
 62
     7
100
AcDbLine
 10
121.603005
 20
-107.155989
 30
0.0
 11
121.603005
 21
-107.056677
 31
0.0
  0
LINE
  5
273
100
AcDbEntity
  8
0
390
0
  6
Continuous
 62
     7
100
AcDbLine
 10
-121.596995
 20
-107.065036
 30
0.0
 11
-121.596995
 21
-107.164397
 31
0.0
  0
LINE
  5
274
100
AcDbEntity
  8
0
390
0
  6
Continuous
 62
     7
100
AcDbLine
 10
-121.596995
 20
-109.856289
 30
0.0
 11
-121.596995
 21
-115.597084
 31
0.0
  0
LINE
  5
275
100
AcDbEntity
  8
0
390
0
  6
Continuous
 62
     7
100
AcDbLine
 10
-110.396995
 20
-115.597084
 30
0.0
 11
-110.396995
 21
-109.853974
 31
0.0
  0
LINE
  5
276
100
AcDbEntity
  8
0
390
0
  6
Continuous
 62
     7
100
AcDbLine
 10
-110.396995
 20
-107.164302
 30
0.0
 11
-110.396995
 21
-107.065064
 31
0.0
  0
LINE
  5
277
100
AcDbEntity
  8
0
390
0
  6
Continuous
 62
     7
100
AcDbLine
 10
110.403005
 20
-107.071128
 30
0.0
 11
110.403005
 21
-107.170432
 31
0.0
  0
LINE
  5
278
100
AcDbEntity
  8
0
390
0
  6
Continuous
 62
     7
100
AcDbLine
 10
110.403005
 20
-111.563425
 30
0.0
 11
110.403005
 21
-115.597084
 31
0.0
  0
LINE
  5
279
100
AcDbEntity
  8
0
390
0
  6
Continuous
 62
     7
100
AcDbLine
 10
-122.246995
 20
-125.597084
 30
0.0
 11
-122.246995
 21
-155.597084
 31
0.0
  0
LINE
  5
27A
100
AcDbEntity
  8
0
390
0
  6
Continuous
 62
     7
100
AcDbLine
 10
-109.746995
 20
-155.597084
 30
0.0
 11
-109.746995
 21
-125.597084
 31
0.0
  0
LINE
  5
27B
100
AcDbEntity
  8
0
390
0
  6
Continuous
 62
     7
100
AcDbLine
 10
109.753005
 20
-125.597084
 30
0.0
 11
109.753005
 21
-155.597084
 31
0.0
  0
LINE
  5
27C
100
AcDbEntity
  8
0
390
0
  6
Continuous
 62
     7
100
AcDbLine
 10
122.253005
 20
-155.597084
 30
0.0
 11
122.253005
 21
-125.597084
 31
0.0
  0
ARC
  5
27D
100
AcDbEntity
  8
0
390
0
  6
Continuous
 62
     7
100
AcDbCircle
 10
116.003005
 20
-278.901967
 30
0.0
 40
9.5
210
0.0
220
0.0
230
1.0
100
AcDbArc
 50
329.999999
 51
149.999999
  0
ARC
  5
27E
100
AcDbEntity
  8
0
390
0
  6
Continuous
 62
     7
100
AcDbCircle
 10
116.003005
 20
-278.901967
 30
0.0
 40
9.5
210
0.0
220
0.0
230
1.0
100
AcDbArc
 50
149.999999
 51
329.999999
  0
LINE
  5
27F
100
AcDbEntity
  8
0
390
0
  6
Continuous
 62
     7
100
AcDbLine
 10
122.065182
 20
-289.401967
 30
0.0
 11
128.12736
 21
-278.901968
 31
0.0
  0
LINE
  5
280
100
AcDbEntity
  8
0
390
0
  6
Continuous
 62
     7
100
AcDbLine
 10
109.940827
 20
-289.401966
 30
0.0
 11
122.065182
 21
-289.401967
 31
0.0
  0
LINE
  5
281
100
AcDbEntity
  8
0
390
0
  6
Continuous
 62
     7
100
AcDbLine
 10
103.878649
 20
-278.901966
 30
0.0
 11
109.940826
 21
-289.401966
 31
0.0
  0
LINE
  5
282
100
AcDbEntity
  8
0
390
0
  6
Continuous
 62
     7
100
AcDbLine
 10
106.909738
 20
-273.651966
 30
0.0
 11
103.87865
 21
-278.901966
 31
0.0
  0
LINE
  5
283
100
AcDbEntity
  8
0
390
0
  6
Continuous
 62
     7
100
AcDbLine
 10
109.940827
 20
-268.401967
 30
0.0
 11
106.909738
 21
-273.651966
 31
0.0
  0
LINE
  5
284
100
AcDbEntity
  8
0
390
0
  6
Continuous
 62
     7
100
AcDbLine
 10
122.065183
 20
-268.401967
 30
0.0
 11
109.940827
 21
-268.401966
 31
0.0
  0
LINE
  5
285
100
AcDbEntity
  8
0
390
0
  6
Continuous
 62
     7
100
AcDbLine
 10
128.127361
 20
-278.901967
 30
0.0
 11
122.065183
 21
-268.401967
 31
0.0
  0
ARC
  5
286
100
AcDbEntity
  8
0
390
0
  6
Continuous
 62
     7
100
AcDbCircle
 10
116.003005
 20
-278.901967
 30
0.0
 40
9.5
210
0.0
220
0.0
230
1.0
100
AcDbArc
 50
329.999999
 51
149.999999
  0
ARC
  5
287
100
AcDbEntity
  8
0
390
0
  6
Continuous
 62
     7
100
AcDbCircle
 10
116.003005
 20
-278.901967
 30
0.0
 40
9.5
210
0.0
220
0.0
230
1.0
100
AcDbArc
 50
149.999999
 51
329.999999
  0
LINE
  5
288
100
AcDbEntity
  8
0
390
0
  6
Continuous
 62
     7
100
AcDbLine
 10
103.878649
 20
-278.901967
 30
0.0
 11
109.940827
 21
-289.401966
 31
0.0
  0
LINE
  5
289
100
AcDbEntity
  8
0
390
0
  6
Continuous
 62
     7
100
AcDbLine
 10
109.940827
 20
-289.401966
 30
0.0
 11
122.065182
 21
-289.401967
 31
0.0
  0
LINE
  5
28A
100
AcDbEntity
  8
0
390
0
  6
Continuous
 62
     7
100
AcDbLine
 10
122.065182
 20
-289.401967
 30
0.0
 11
128.127361
 21
-278.901967
 31
0.0
  0
LINE
  5
28B
100
AcDbEntity
  8
0
390
0
  6
Continuous
 62
     7
100
AcDbLine
 10
128.127361
 20
-278.901967
 30
0.0
 11
122.065183
 21
-268.401967
 31
0.0
  0
LINE
  5
28C
100
AcDbEntity
  8
0
390
0
  6
Continuous
 62
     7
100
AcDbLine
 10
122.065183
 20
-268.401967
 30
0.0
 11
109.940827
 21
-268.401966
 31
0.0
  0
LINE
  5
28D
100
AcDbEntity
  8
0
390
0
  6
Continuous
 62
     7
100
AcDbLine
 10
109.940827
 20
-268.401966
 30
0.0
 11
106.859994
 21
-273.738126
 31
0.0
  0
LINE
  5
28E
100
AcDbEntity
  8
0
390
0
  6
Continuous
 62
     7
100
AcDbLine
 10
106.859994
 20
-273.738126
 30
0.0
 11
103.878649
 21
-278.901967
 31
0.0
  0
ARC
  5
28F
100
AcDbEntity
  8
0
390
0
  6
Continuous
 62
     7
100
AcDbCircle
 10
-115.996974
 20
-278.90193
 30
0.0
 40
9.5
210
0.0
220
0.0
230
1.0
100
AcDbArc
 50
329.999746
 51
150.000251
  0
ARC
  5
290
100
AcDbEntity
  8
0
390
0
  6
Continuous
 62
     7
100
AcDbCircle
 10
-115.996995
 20
-278.901967
 30
0.0
 40
9.5
210
0.0
220
0.0
230
1.0
100
AcDbArc
 50
149.999999
 51
329.999999
  0
LINE
  5
291
100
AcDbEntity
  8
0
390
0
  6
Continuous
 62
     7
100
AcDbLine
 10
-122.059173
 20
-268.401967
 30
0.0
 11
-125.090262
 21
-273.651966
 31
0.0
  0
ARC
  5
292
100
AcDbEntity
  8
0
390
0
  6
Continuous
 62
     7
100
AcDbCircle
 10
-115.996995
 20
-278.901967
 30
0.0
 40
9.5
210
0.0
220
0.0
230
1.0
100
AcDbArc
 50
329.999999
 51
149.999999
  0
ARC
  5
293
100
AcDbEntity
  8
0
390
0
  6
Continuous
 62
     7
100
AcDbCircle
 10
-115.996995
 20
-278.901967
 30
0.0
 40
9.5
210
0.0
220
0.0
230
1.0
100
AcDbArc
 50
149.999999
 51
329.999999
  0
LINE
  5
294
100
AcDbEntity
  8
0
390
0
  6
Continuous
 62
     7
100
AcDbLine
 10
-125.090262
 20
-273.651966
 30
0.0
 11
-128.12135
 21
-278.901966
 31
0.0
  0
LINE
  5
295
100
AcDbEntity
  8
0
390
0
  6
Continuous
 62
     7
100
AcDbLine
 10
-128.121351
 20
-278.901966
 30
0.0
 11
-122.059174
 21
-289.401966
 31
0.0
  0
LINE
  5
296
100
AcDbEntity
  8
0
390
0
  6
Continuous
 62
     7
100
AcDbLine
 10
-122.059173
 20
-289.401966
 30
0.0
 11
-109.934818
 21
-289.401967
 31
0.0
  0
LINE
  5
297
100
AcDbEntity
  8
0
390
0
  6
Continuous
 62
     7
100
AcDbLine
 10
-109.934818
 20
-289.401967
 30
0.0
 11
-103.87264
 21
-278.901968
 31
0.0
  0
LINE
  5
298
100
AcDbEntity
  8
0
390
0
  6
Continuous
 62
     7
100
AcDbLine
 10
-103.872639
 20
-278.901967
 30
0.0
 11
-109.934817
 21
-268.401967
 31
0.0
  0
LINE
  5
299
100
AcDbEntity
  8
0
390
0
  6
Continuous
 62
     7
100
AcDbLine
 10
-109.934817
 20
-268.401967
 30
0.0
 11
-122.059173
 21
-268.401966
 31
0.0
  0
LINE
  5
29A
100
AcDbEntity
  8
0
390
0
  6
Continuous
 62
     7
100
AcDbLine
 10
-128.121351
 20
-278.901967
 30
0.0
 11
-122.059173
 21
-289.401966
 31
0.0
  0
LINE
  5
29B
100
AcDbEntity
  8
0
390
0
  6
Continuous
 62
     7
100
AcDbLine
 10
-122.059173
 20
-289.401966
 30
0.0
 11
-109.934818
 21
-289.401967
 31
0.0
  0
LINE
  5
29C
100
AcDbEntity
  8
0
390
0
  6
Continuous
 62
     7
100
AcDbLine
 10
-109.934818
 20
-289.401967
 30
0.0
 11
-103.872639
 21
-278.901967
 31
0.0
  0
LINE
  5
29D
100
AcDbEntity
  8
0
390
0
  6
Continuous
 62
     7
100
AcDbLine
 10
-103.872639
 20
-278.901967
 30
0.0
 11
-109.934817
 21
-268.401967
 31
0.0
  0
LINE
  5
29E
100
AcDbEntity
  8
0
390
0
  6
Continuous
 62
     7
100
AcDbLine
 10
-109.934817
 20
-268.401967
 30
0.0
 11
-122.059173
 21
-268.401966
 31
0.0
  0
LINE
  5
29F
100
AcDbEntity
  8
0
390
0
  6
Continuous
 62
     7
100
AcDbLine
 10
-122.059173
 20
-268.401966
 30
0.0
 11
-125.140006
 21
-273.738126
 31
0.0
  0
LINE
  5
2A0
100
AcDbEntity
  8
0
390
0
  6
Continuous
 62
     7
100
AcDbLine
 10
-125.140006
 20
-273.738126
 30
0.0
 11
-128.121351
 21
-278.901967
 31
0.0
  0
LINE
  5
2A1
100
AcDbEntity
  8
0
390
0
  6
Continuous
 62
     7
100
AcDbLine
 10
30.903005
 20
-267.901967
 30
0.0
 11
32.403005
 21
-267.901967
 31
0.0
  0
LINE
  5
2A2
100
AcDbEntity
  8
0
390
0
  6
Continuous
 62
     7
100
AcDbLine
 10
32.403005
 20
-267.901967
 30
0.0
 11
33.903005
 21
-267.901967
 31
0.0
  0
LINE
  5
2A3
100
AcDbEntity
  8
0
390
0
  6
Continuous
 62
     7
100
AcDbLine
 10
30.903005
 20
-289.901967
 30
0.0
 11
33.903005
 21
-289.901967
 31
0.0
  0
LINE
  5
2A4
100
AcDbEntity
  8
0
390
0
  6
Continuous
 62
     7
100
AcDbLine
 10
30.903005
 20
-289.901967
 30
0.0
 11
30.903005
 21
-267.901967
 31
0.0
  0
LINE
  5
2A5
100
AcDbEntity
  8
0
390
0
  6
Continuous
 62
     7
100
AcDbLine
 10
33.903005
 20
-267.901967
 30
0.0
 11
33.903005
 21
-289.901967
 31
0.0
  0
LINE
  5
2A6
100
AcDbEntity
  8
0
390
0
  6
Continuous
 62
     7
100
AcDbLine
 10
-33.896995
 20
-267.901966
 30
0.0
 11
-32.396995
 21
-267.901966
 31
0.0
  0
LINE
  5
2A7
100
AcDbEntity
  8
0
390
0
  6
Continuous
 62
     7
100
AcDbLine
 10
-32.396995
 20
-267.901966
 30
0.0
 11
-30.896995
 21
-267.901966
 31
0.0
  0
LINE
  5
2A8
100
AcDbEntity
  8
0
390
0
  6
Continuous
 62
     7
100
AcDbLine
 10
-33.896995
 20
-289.901966
 30
0.0
 11
-30.896995
 21
-289.901966
 31
0.0
  0
LINE
  5
2A9
100
AcDbEntity
  8
0
390
0
  6
Continuous
 62
     7
100
AcDbLine
 10
-30.896995
 20
-267.901966
 30
0.0
 11
-30.896995
 21
-289.901966
 31
0.0
  0
LINE
  5
2AA
100
AcDbEntity
  8
0
390
0
  6
Continuous
 62
     7
100
AcDbLine
 10
-33.896995
 20
-289.901966
 30
0.0
 11
-33.896995
 21
-267.901966
 31
0.0
  0
ARC
  5
2AB
100
AcDbEntity
  8
0
390
0
  6
Continuous
 62
     7
100
AcDbCircle
 10
-120.546995
 20
-278.901965
 30
0.0
 40
15.0
210
0.0
220
0.0
230
0.9999999999999999
100
AcDbArc
 50
264.398475
 51
266.03533
  0
ARC
  5
2AC
100
AcDbEntity
  8
0
390
0
  6
Continuous
 62
     7
100
AcDbCircle
 10
-120.546995
 20
-278.901965
 30
0.0
 40
15.0
210
0.0
220
0.0
230
1.0
100
AcDbArc
 50
179.999999
 51
264.398475
  0
ARC
  5
2AD
100
AcDbEntity
  8
0
390
0
  6
Continuous
 62
     7
100
AcDbCircle
 10
-120.546995
 20
-278.901965
 30
0.0
 40
15.0
210
0.0
220
0.0
230
1.0
100
AcDbArc
 50
266.353189
 51
269.999999
  0
ARC
  5
2AE
100
AcDbEntity
  8
0
390
0
  6
Continuous
 62
     7
100
AcDbCircle
 10
-120.546995
 20
-278.901965
 30
0.0
 40
15.0
210
0.0
220
0.0
230
0.9999999999999999
100
AcDbArc
 50
266.03533
 51
266.353189
  0
LINE
  5
2AF
100
AcDbEntity
  8
0
390
0
  6
Continuous
 62
     7
100
AcDbLine
 10
117.453004
 20
-293.901968
 30
0.0
 11
-120.546995
 21
-293.901965
 31
0.0
  0
ARC
  5
2B0
100
AcDbEntity
  8
0
390
0
  6
Continuous
 62
     7
100
AcDbCircle
 10
117.453005
 20
-278.901968
 30
0.0
 40
15.0
210
0.0
220
0.0
230
1.0
100
AcDbArc
 50
269.999999
 51
359.999999
  0
ARC
  5
2B1
100
AcDbEntity
  8
0
390
0
  6
Continuous
 62
     7
100
AcDbCircle
 10
117.453005
 20
-278.901968
 30
0.0
 40
15.0
210
0.0
220
0.0
230
1.0
100
AcDbArc
 50
84.398475
 51
86.035185
  0
ARC
  5
2B2
100
AcDbEntity
  8
0
390
0
  6
Continuous
 62
     7
100
AcDbCircle
 10
117.453005
 20
-278.901968
 30
0.0
 40
15.0
210
0.0
220
0.0
230
1.0
100
AcDbArc
 50
359.999999
 51
84.398475
  0
ARC
  5
2B3
100
AcDbEntity
  8
0
390
0
  6
Continuous
 62
     7
100
AcDbCircle
 10
117.453005
 20
-278.901968
 30
0.0
 40
15.0
210
0.0
220
0.0
230
1.0
100
AcDbArc
 50
86.353189
 51
89.999999
  0
ARC
  5
2B4
100
AcDbEntity
  8
0
390
0
  6
Continuous
 62
     7
100
AcDbCircle
 10
117.453005
 20
-278.901968
 30
0.0
 40
15.0
210
0.0
220
0.0
230
1.0
100
AcDbArc
 50
86.035185
 51
86.353189
  0
LINE
  5
2B5
100
AcDbEntity
  8
0
390
0
  6
Continuous
 62
     7
100
AcDbLine
 10
-120.546995
 20
-263.901965
 30
0.0
 11
117.453005
 21
-263.901968
 31
0.0
  0
ARC
  5
2B6
100
AcDbEntity
  8
0
390
0
  6
Continuous
 62
     7
100
AcDbCircle
 10
-120.546995
 20
-278.901965
 30
0.0
 40
15.0
210
0.0
220
0.0
230
1.0
100
AcDbArc
 50
89.999999
 51
179.999999
  0
LINE
  5
2B7
100
AcDbEntity
  8
0
390
0
  6
Continuous
 62
     7
100
AcDbLine
 10
117.453005
 20
-293.901968
 30
0.0
 11
-120.546995
 21
-293.901965
 31
0.0
  0
ARC
  5
2B8
100
AcDbEntity
  8
0
390
0
  6
Continuous
 62
     7
100
AcDbCircle
 10
117.453005
 20
-278.901968
 30
0.0
 40
15.0
210
0.0
220
0.0
230
1.0
100
AcDbArc
 50
269.999999
 51
359.999999
  0
LINE
  5
2B9
100
AcDbEntity
  8
0
390
0
  6
Continuous
 62
     7
100
AcDbLine
 10
117.453005
 20
-263.901968
 30
0.0
 11
118.390439
 21
-263.931181
 31
0.0
  0
LINE
  5
2BA
100
AcDbEntity
  8
0
390
0
  6
Continuous
 62
     7
100
AcDbLine
 10
118.390439
 20
-263.931181
 30
0.0
 11
118.589979
 21
-263.944989
 31
0.0
  0
LINE
  5
2BB
100
AcDbEntity
  8
0
390
0
  6
Continuous
 62
     7
100
AcDbLine
 10
118.589979
 20
-263.944989
 30
0.0
 11
118.917189
 21
-263.973452
 31
0.0
  0
ARC
  5
2BC
100
AcDbEntity
  8
0
390
0
  6
Continuous
 62
     7
100
AcDbCircle
 10
117.452989
 20
-278.901834
 30
0.0
 40
15.000016
210
0.0
220
0.0
230
1.0
100
AcDbArc
 50
359.999486
 51
84.398255
  0
LINE
  5
2BD
100
AcDbEntity
  8
0
390
0
  6
Continuous
 62
     7
100
AcDbLine
 10
-120.546995
 20
-263.901965
 30
0.0
 11
117.453005
 21
-263.901968
 31
0.0
  0
ARC
  5
2BE
100
AcDbEntity
  8
0
390
0
  6
Continuous
 62
     7
100
AcDbCircle
 10
-120.546995
 20
-278.901965
 30
0.0
 40
15.0
210
0.0
220
0.0
230
1.0
100
AcDbArc
 50
89.999999
 51
179.999999
  0
LINE
  5
2BF
100
AcDbEntity
  8
0
390
0
  6
Continuous
 62
     7
100
AcDbLine
 10
-120.546995
 20
-293.901965
 30
0.0
 11
-121.484392
 21
-293.872754
 31
0.0
  0
LINE
  5
2C0
100
AcDbEntity
  8
0
390
0
  6
Continuous
 62
     7
100
AcDbLine
 10
-121.484392
 20
-293.872754
 30
0.0
 11
-121.683931
 21
-293.858947
 31
0.0
  0
LINE
  5
2C1
100
AcDbEntity
  8
0
390
0
  6
Continuous
 62
     7
100
AcDbLine
 10
-121.683931
 20
-293.858947
 30
0.0
 11
-122.011179
 21
-293.830481
 31
0.0
  0
ARC
  5
2C2
100
AcDbEntity
  8
0
390
0
  6
Continuous
 62
     7
100
AcDbCircle
 10
-120.546979
 20
-278.902099
 30
0.0
 40
15.000016
210
0.0
220
0.0
230
0.9999999999999999
100
AcDbArc
 50
179.999486
 51
264.398255
  0
LINE
  5
2C3
100
AcDbEntity
  8
0
390
0
  6
Continuous
 62
     7
100
AcDbLine
 10
-30.896995
 20
-267.901966
 30
0.0
 11
-33.896995
 21
-267.901966
 31
0.0
  0
LINE
  5
2C4
100
AcDbEntity
  8
0
390
0
  6
Continuous
 62
     7
100
AcDbLine
 10
-30.896995
 20
-289.901966
 30
0.0
 11
-30.896995
 21
-267.901966
 31
0.0
  0
LINE
  5
2C5
100
AcDbEntity
  8
0
390
0
  6
Continuous
 62
     7
100
AcDbLine
 10
-33.896995
 20
-289.901966
 30
0.0
 11
-30.896995
 21
-289.901966
 31
0.0
  0
LINE
  5
2C6
100
AcDbEntity
  8
0
390
0
  6
Continuous
 62
     7
100
AcDbLine
 10
-33.896995
 20
-267.901966
 30
0.0
 11
-33.896995
 21
-289.901966
 31
0.0
  0
LINE
  5
2C7
100
AcDbEntity
  8
0
390
0
  6
Continuous
 62
     7
100
AcDbLine
 10
33.903005
 20
-267.901967
 30
0.0
 11
30.903005
 21
-267.901967
 31
0.0
  0
LINE
  5
2C8
100
AcDbEntity
  8
0
390
0
  6
Continuous
 62
     7
100
AcDbLine
 10
33.903005
 20
-289.901967
 30
0.0
 11
33.903005
 21
-267.901967
 31
0.0
  0
LINE
  5
2C9
100
AcDbEntity
  8
0
390
0
  6
Continuous
 62
     7
100
AcDbLine
 10
30.903005
 20
-289.901967
 30
0.0
 11
33.903005
 21
-289.901967
 31
0.0
  0
LINE
  5
2CA
100
AcDbEntity
  8
0
390
0
  6
Continuous
 62
     7
100
AcDbLine
 10
30.903005
 20
-267.901967
 30
0.0
 11
30.903005
 21
-289.901967
 31
0.0
  0
LINE
  5
2CB
100
AcDbEntity
  8
0
390
0
  6
Continuous
 62
     7
100
AcDbLine
 10
-108.396988
 20
-293.901967
 30
0.0
 11
-108.249567
 21
-293.901967
 31
0.0
  0
LINE
  5
2CC
100
AcDbEntity
  8
0
390
0
  6
Continuous
 62
     7
100
AcDbLine
 10
-108.249567
 20
-293.901967
 30
0.0
 11
-108.22337
 21
-293.901967
 31
0.0
  0
LINE
  5
2CD
100
AcDbEntity
  8
0
390
0
  6
Continuous
 62
     7
100
AcDbLine
 10
-108.22337
 20
-293.901967
 30
0.0
 11
-107.871209
 21
-293.901967
 31
0.0
  0
LINE
  5
2CE
100
AcDbEntity
  8
0
390
0
  6
Continuous
 62
     7
100
AcDbLine
 10
-107.871209
 20
-293.901967
 30
0.0
 11
-107.218235
 21
-293.901967
 31
0.0
  0
LINE
  5
2CF
100
AcDbEntity
  8
0
390
0
  6
Continuous
 62
     7
100
AcDbLine
 10
-107.218235
 20
-293.901967
 30
0.0
 11
-106.795282
 21
-293.901967
 31
0.0
  0
LINE
  5
2D0
100
AcDbEntity
  8
0
390
0
  6
Continuous
 62
     7
100
AcDbLine
 10
-106.795282
 20
-293.901967
 30
0.0
 11
-106.308019
 21
-293.901967
 31
0.0
  0
LINE
  5
2D1
100
AcDbEntity
  8
0
390
0
  6
Continuous
 62
     7
100
AcDbLine
 10
-106.308019
 20
-293.901967
 30
0.0
 11
-105.756445
 21
-293.901967
 31
0.0
  0
LINE
  5
2D2
100
AcDbEntity
  8
0
390
0
  6
Continuous
 62
     7
100
AcDbLine
 10
-105.756445
 20
-293.901967
 30
0.0
 11
-105.141074
 21
-293.901967
 31
0.0
  0
LINE
  5
2D3
100
AcDbEntity
  8
0
390
0
  6
Continuous
 62
     7
100
AcDbLine
 10
-105.141074
 20
-293.901967
 30
0.0
 11
-104.463635
 21
-293.901967
 31
0.0
  0
LINE
  5
2D4
100
AcDbEntity
  8
0
390
0
  6
Continuous
 62
     7
100
AcDbLine
 10
-104.463635
 20
-293.901967
 30
0.0
 11
-103.724128
 21
-293.901967
 31
0.0
  0
LINE
  5
2D5
100
AcDbEntity
  8
0
390
0
  6
Continuous
 62
     7
100
AcDbLine
 10
-103.724128
 20
-293.901967
 30
0.0
 11
-102.922554
 21
-293.901967
 31
0.0
  0
LINE
  5
2D6
100
AcDbEntity
  8
0
390
0
  6
Continuous
 62
     7
100
AcDbLine
 10
-102.922554
 20
-293.901967
 30
0.0
 11
-102.058913
 21
-293.901967
 31
0.0
  0
LINE
  5
2D7
100
AcDbEntity
  8
0
390
0
  6
Continuous
 62
     7
100
AcDbLine
 10
-102.058913
 20
-293.901967
 30
0.0
 11
-100.146328
 21
-293.901967
 31
0.0
  0
LINE
  5
2D8
100
AcDbEntity
  8
0
390
0
  6
Continuous
 62
     7
100
AcDbLine
 10
-100.146328
 20
-293.901967
 30
0.0
 11
-99.098658
 21
-293.901967
 31
0.0
  0
LINE
  5
2D9
100
AcDbEntity
  8
0
390
0
  6
Continuous
 62
     7
100
AcDbLine
 10
-99.098658
 20
-293.901967
 30
0.0
 11
-97.990071
 21
-293.901967
 31
0.0
  0
LINE
  5
2DA
100
AcDbEntity
  8
0
390
0
  6
Continuous
 62
     7
100
AcDbLine
 10
-97.990071
 20
-293.901967
 30
0.0
 11
-96.820565
 21
-293.901967
 31
0.0
  0
LINE
  5
2DB
100
AcDbEntity
  8
0
390
0
  6
Continuous
 62
     7
100
AcDbLine
 10
-96.820565
 20
-293.901967
 30
0.0
 11
-95.594984
 21
-293.901967
 31
0.0
  0
LINE
  5
2DC
100
AcDbEntity
  8
0
390
0
  6
Continuous
 62
     7
100
AcDbLine
 10
-95.594984
 20
-293.901967
 30
0.0
 11
-94.312387
 21
-293.901967
 31
0.0
  0
LINE
  5
2DD
100
AcDbEntity
  8
0
390
0
  6
Continuous
 62
     7
100
AcDbLine
 10
-94.312387
 20
-293.901967
 30
0.0
 11
-92.972774
 21
-293.901967
 31
0.0
  0
LINE
  5
2DE
100
AcDbEntity
  8
0
390
0
  6
Continuous
 62
     7
100
AcDbLine
 10
-92.972774
 20
-293.901967
 30
0.0
 11
-91.576146
 21
-293.901967
 31
0.0
  0
LINE
  5
2DF
100
AcDbEntity
  8
0
390
0
  6
Continuous
 62
     7
100
AcDbLine
 10
-91.576146
 20
-293.901967
 30
0.0
 11
-90.122501
 21
-293.901967
 31
0.0
  0
LINE
  5
2E0
100
AcDbEntity
  8
0
390
0
  6
Continuous
 62
     7
100
AcDbLine
 10
-90.122501
 20
-293.901967
 30
0.0
 11
-88.615332
 21
-293.901967
 31
0.0
  0
LINE
  5
2E1
100
AcDbEntity
  8
0
390
0
  6
Continuous
 62
     7
100
AcDbLine
 10
-88.615332
 20
-293.901967
 30
0.0
 11
-87.057094
 21
-293.901967
 31
0.0
  0
LINE
  5
2E2
100
AcDbEntity
  8
0
390
0
  6
Continuous
 62
     7
100
AcDbLine
 10
-87.057094
 20
-293.901967
 30
0.0
 11
-83.787409
 21
-293.901967
 31
0.0
  0
LINE
  5
2E3
100
AcDbEntity
  8
0
390
0
  6
Continuous
 62
     7
100
AcDbLine
 10
-83.787409
 20
-293.901967
 30
0.0
 11
-76.64607
 21
-293.901967
 31
0.0
  0
LINE
  5
2E4
100
AcDbEntity
  8
0
390
0
  6
Continuous
 62
     7
100
AcDbLine
 10
-76.64607
 20
-293.901967
 30
0.0
 11
-74.743072
 21
-293.901967
 31
0.0
  0
LINE
  5
2E5
100
AcDbEntity
  8
0
390
0
  6
Continuous
 62
     7
100
AcDbLine
 10
-74.743072
 20
-293.901967
 30
0.0
 11
-68.767434
 21
-293.901967
 31
0.0
  0
LINE
  5
2E6
100
AcDbEntity
  8
0
390
0
  6
Continuous
 62
     7
100
AcDbLine
 10
-68.767434
 20
-293.901967
 30
0.0
 11
-64.572091
 21
-293.901967
 31
0.0
  0
LINE
  5
2E7
100
AcDbEntity
  8
0
390
0
  6
Continuous
 62
     7
100
AcDbLine
 10
-64.572091
 20
-293.901967
 30
0.0
 11
-62.410963
 21
-293.901967
 31
0.0
  0
LINE
  5
2E8
100
AcDbEntity
  8
0
390
0
  6
Continuous
 62
     7
100
AcDbLine
 10
-62.410963
 20
-293.901967
 30
0.0
 11
-60.214418
 21
-293.901967
 31
0.0
  0
LINE
  5
2E9
100
AcDbEntity
  8
0
390
0
  6
Continuous
 62
     7
100
AcDbLine
 10
-60.214418
 20
-293.901967
 30
0.0
 11
-57.984432
 21
-293.901967
 31
0.0
  0
LINE
  5
2EA
100
AcDbEntity
  8
0
390
0
  6
Continuous
 62
     7
100
AcDbLine
 10
-57.984432
 20
-293.901967
 30
0.0
 11
-55.721002
 21
-293.901967
 31
0.0
  0
LINE
  5
2EB
100
AcDbEntity
  8
0
390
0
  6
Continuous
 62
     7
100
AcDbLine
 10
-55.721002
 20
-293.901967
 30
0.0
 11
-53.424131
 21
-293.901967
 31
0.0
  0
LINE
  5
2EC
100
AcDbEntity
  8
0
390
0
  6
Continuous
 62
     7
100
AcDbLine
 10
-53.424131
 20
-293.901967
 30
0.0
 11
-51.093817
 21
-293.901967
 31
0.0
  0
LINE
  5
2ED
100
AcDbEntity
  8
0
390
0
  6
Continuous
 62
     7
100
AcDbLine
 10
-51.093817
 20
-293.901967
 30
0.0
 11
-48.727556
 21
-293.901967
 31
0.0
  0
LINE
  5
2EE
100
AcDbEntity
  8
0
390
0
  6
Continuous
 62
     7
100
AcDbLine
 10
-48.727556
 20
-293.901967
 30
0.0
 11
-46.336937
 21
-293.901967
 31
0.0
  0
LINE
  5
2EF
100
AcDbEntity
  8
0
390
0
  6
Continuous
 62
     7
100
AcDbLine
 10
-46.336937
 20
-293.901967
 30
0.0
 11
-43.921961
 21
-293.901967
 31
0.0
  0
LINE
  5
2F0
100
AcDbEntity
  8
0
390
0
  6
Continuous
 62
     7
100
AcDbLine
 10
-43.921961
 20
-293.901967
 30
0.0
 11
-41.482627
 21
-293.901967
 31
0.0
  0
LINE
  5
2F1
100
AcDbEntity
  8
0
390
0
  6
Continuous
 62
     7
100
AcDbLine
 10
-41.482627
 20
-293.901967
 30
0.0
 11
-39.018935
 21
-293.901967
 31
0.0
  0
LINE
  5
2F2
100
AcDbEntity
  8
0
390
0
  6
Continuous
 62
     7
100
AcDbLine
 10
-39.018935
 20
-293.901967
 30
0.0
 11
-34.018479
 21
-293.901967
 31
0.0
  0
LINE
  5
2F3
100
AcDbEntity
  8
0
390
0
  6
Continuous
 62
     7
100
AcDbLine
 10
-34.018479
 20
-293.901967
 30
0.0
 11
-31.481715
 21
-293.901967
 31
0.0
  0
LINE
  5
2F4
100
AcDbEntity
  8
0
390
0
  6
Continuous
 62
     7
100
AcDbLine
 10
-31.481715
 20
-293.901967
 30
0.0
 11
-28.920593
 21
-293.901967
 31
0.0
  0
LINE
  5
2F5
100
AcDbEntity
  8
0
390
0
  6
Continuous
 62
     7
100
AcDbLine
 10
-28.920593
 20
-293.901967
 30
0.0
 11
-26.335114
 21
-293.901967
 31
0.0
  0
LINE
  5
2F6
100
AcDbEntity
  8
0
390
0
  6
Continuous
 62
     7
100
AcDbLine
 10
-26.335114
 20
-293.901967
 30
0.0
 11
-21.142227
 21
-293.901967
 31
0.0
  0
LINE
  5
2F7
100
AcDbEntity
  8
0
390
0
  6
Continuous
 62
     7
100
AcDbLine
 10
-21.142227
 20
-293.901967
 30
0.0
 11
-18.52819
 21
-293.901967
 31
0.0
  0
LINE
  5
2F8
100
AcDbEntity
  8
0
390
0
  6
Continuous
 62
     7
100
AcDbLine
 10
-18.52819
 20
-293.901967
 30
0.0
 11
-5.30762
 21
-293.901967
 31
0.0
  0
LINE
  5
2F9
100
AcDbEntity
  8
0
390
0
  6
Continuous
 62
     7
100
AcDbLine
 10
-5.30762
 20
-293.901967
 30
0.0
 11
-2.652883
 21
-293.901967
 31
0.0
  0
LINE
  5
2FA
100
AcDbEntity
  8
0
390
0
  6
Continuous
 62
     7
100
AcDbLine
 10
-2.652883
 20
-293.901967
 30
0.0
 11
-0.203325
 21
-293.901967
 31
0.0
  0
LINE
  5
2FB
100
AcDbEntity
  8
0
390
0
  6
Continuous
 62
     7
100
AcDbLine
 10
-0.203325
 20
-293.901967
 30
0.0
 11
-0.042313
 21
-293.901967
 31
0.0
  0
LINE
  5
2FC
100
AcDbEntity
  8
0
390
0
  6
Continuous
 62
     7
100
AcDbLine
 10
-0.042313
 20
-293.901967
 30
0.0
 11
108.401765
 21
-293.901967
 31
0.0
  0
LINE
  5
2FD
100
AcDbEntity
  8
0
390
0
  6
Continuous
 62
     7
100
AcDbLine
 10
-108.396988
 20
-263.901967
 30
0.0
 11
-108.071059
 21
-263.901967
 31
0.0
  0
LINE
  5
2FE
100
AcDbEntity
  8
0
390
0
  6
Continuous
 62
     7
100
AcDbLine
 10
-108.071059
 20
-263.901967
 30
0.0
 11
-107.871209
 21
-263.901967
 31
0.0
  0
LINE
  5
2FF
100
AcDbEntity
  8
0
390
0
  6
Continuous
 62
     7
100
AcDbLine
 10
-107.871209
 20
-263.901967
 30
0.0
 11
-106.795282
 21
-263.901967
 31
0.0
  0
LINE
  5
300
100
AcDbEntity
  8
0
390
0
  6
Continuous
 62
     7
100
AcDbLine
 10
-106.795282
 20
-263.901967
 30
0.0
 11
-105.756445
 21
-263.901967
 31
0.0
  0
LINE
  5
301
100
AcDbEntity
  8
0
390
0
  6
Continuous
 62
     7
100
AcDbLine
 10
-105.756445
 20
-263.901967
 30
0.0
 11
-105.141074
 21
-263.901967
 31
0.0
  0
LINE
  5
302
100
AcDbEntity
  8
0
390
0
  6
Continuous
 62
     7
100
AcDbLine
 10
-105.141074
 20
-263.901967
 30
0.0
 11
-102.922554
 21
-263.901967
 31
0.0
  0
LINE
  5
303
100
AcDbEntity
  8
0
390
0
  6
Continuous
 62
     7
100
AcDbLine
 10
-102.922554
 20
-263.901967
 30
0.0
 11
-102.058913
 21
-263.901967
 31
0.0
  0
LINE
  5
304
100
AcDbEntity
  8
0
390
0
  6
Continuous
 62
     7
100
AcDbLine
 10
-102.058913
 20
-263.901967
 30
0.0
 11
-101.13308
 21
-263.901967
 31
0.0
  0
LINE
  5
305
100
AcDbEntity
  8
0
390
0
  6
Continuous
 62
     7
100
AcDbLine
 10
-101.13308
 20
-263.901967
 30
0.0
 11
-100.146328
 21
-263.901967
 31
0.0
  0
LINE
  5
306
100
AcDbEntity
  8
0
390
0
  6
Continuous
 62
     7
100
AcDbLine
 10
-100.146328
 20
-263.901967
 30
0.0
 11
-99.098658
 21
-263.901967
 31
0.0
  0
LINE
  5
307
100
AcDbEntity
  8
0
390
0
  6
Continuous
 62
     7
100
AcDbLine
 10
-99.098658
 20
-263.901967
 30
0.0
 11
-96.820565
 21
-263.901967
 31
0.0
  0
LINE
  5
308
100
AcDbEntity
  8
0
390
0
  6
Continuous
 62
     7
100
AcDbLine
 10
-96.820565
 20
-263.901967
 30
0.0
 11
-95.594984
 21
-263.901967
 31
0.0
  0
LINE
  5
309
100
AcDbEntity
  8
0
390
0
  6
Continuous
 62
     7
100
AcDbLine
 10
-95.594984
 20
-263.901967
 30
0.0
 11
-94.312387
 21
-263.901967
 31
0.0
  0
LINE
  5
30A
100
AcDbEntity
  8
0
390
0
  6
Continuous
 62
     7
100
AcDbLine
 10
-94.312387
 20
-263.901967
 30
0.0
 11
-92.972774
 21
-263.901967
 31
0.0
  0
LINE
  5
30B
100
AcDbEntity
  8
0
390
0
  6
Continuous
 62
     7
100
AcDbLine
 10
-92.972774
 20
-263.901967
 30
0.0
 11
-90.122501
 21
-263.901967
 31
0.0
  0
LINE
  5
30C
100
AcDbEntity
  8
0
390
0
  6
Continuous
 62
     7
100
AcDbLine
 10
-90.122501
 20
-263.901967
 30
0.0
 11
-87.057094
 21
-263.901967
 31
0.0
  0
LINE
  5
30D
100
AcDbEntity
  8
0
390
0
  6
Continuous
 62
     7
100
AcDbLine
 10
-87.057094
 20
-263.901967
 30
0.0
 11
-85.447786
 21
-263.901967
 31
0.0
  0
LINE
  5
30E
100
AcDbEntity
  8
0
390
0
  6
Continuous
 62
     7
100
AcDbLine
 10
-85.447786
 20
-263.901967
 30
0.0
 11
-82.075963
 21
-263.901967
 31
0.0
  0
LINE
  5
30F
100
AcDbEntity
  8
0
390
0
  6
Continuous
 62
     7
100
AcDbLine
 10
-82.075963
 20
-263.901967
 30
0.0
 11
-74.743072
 21
-263.901967
 31
0.0
  0
LINE
  5
310
100
AcDbEntity
  8
0
390
0
  6
Continuous
 62
     7
100
AcDbLine
 10
-74.743072
 20
-263.901967
 30
0.0
 11
-72.793558
 21
-263.901967
 31
0.0
  0
LINE
  5
311
100
AcDbEntity
  8
0
390
0
  6
Continuous
 62
     7
100
AcDbLine
 10
-72.793558
 20
-263.901967
 30
0.0
 11
-68.767434
 21
-263.901967
 31
0.0
  0
LINE
  5
312
100
AcDbEntity
  8
0
390
0
  6
Continuous
 62
     7
100
AcDbLine
 10
-68.767434
 20
-263.901967
 30
0.0
 11
-60.214418
 21
-263.901967
 31
0.0
  0
LINE
  5
313
100
AcDbEntity
  8
0
390
0
  6
Continuous
 62
     7
100
AcDbLine
 10
-60.214418
 20
-263.901967
 30
0.0
 11
-55.721002
 21
-263.901967
 31
0.0
  0
LINE
  5
314
100
AcDbEntity
  8
0
390
0
  6
Continuous
 62
     7
100
AcDbLine
 10
-55.721002
 20
-263.901967
 30
0.0
 11
-51.093817
 21
-263.901967
 31
0.0
  0
LINE
  5
315
100
AcDbEntity
  8
0
390
0
  6
Continuous
 62
     7
100
AcDbLine
 10
-51.093817
 20
-263.901967
 30
0.0
 11
-48.727556
 21
-263.901967
 31
0.0
  0
LINE
  5
316
100
AcDbEntity
  8
0
390
0
  6
Continuous
 62
     7
100
AcDbLine
 10
-48.727556
 20
-263.901967
 30
0.0
 11
-43.921961
 21
-263.901967
 31
0.0
  0
LINE
  5
317
100
AcDbEntity
  8
0
390
0
  6
Continuous
 62
     7
100
AcDbLine
 10
-43.921961
 20
-263.901967
 30
0.0
 11
-39.018935
 21
-263.901967
 31
0.0
  0
LINE
  5
318
100
AcDbEntity
  8
0
390
0
  6
Continuous
 62
     7
100
AcDbLine
 10
-39.018935
 20
-263.901967
 30
0.0
 11
-34.018479
 21
-263.901967
 31
0.0
  0
LINE
  5
319
100
AcDbEntity
  8
0
390
0
  6
Continuous
 62
     7
100
AcDbLine
 10
-34.018479
 20
-263.901967
 30
0.0
 11
-31.481715
 21
-263.901967
 31
0.0
  0
LINE
  5
31A
100
AcDbEntity
  8
0
390
0
  6
Continuous
 62
     7
100
AcDbLine
 10
-31.481715
 20
-263.901967
 30
0.0
 11
-28.920593
 21
-263.901967
 31
0.0
  0
LINE
  5
31B
100
AcDbEntity
  8
0
390
0
  6
Continuous
 62
     7
100
AcDbLine
 10
-28.920593
 20
-263.901967
 30
0.0
 11
-21.142227
 21
-263.901967
 31
0.0
  0
LINE
  5
31C
100
AcDbEntity
  8
0
390
0
  6
Continuous
 62
     7
100
AcDbLine
 10
-21.142227
 20
-263.901967
 30
0.0
 11
-18.52819
 21
-263.901967
 31
0.0
  0
LINE
  5
31D
100
AcDbEntity
  8
0
390
0
  6
Continuous
 62
     7
100
AcDbLine
 10
-18.52819
 20
-263.901967
 30
0.0
 11
-10.613643
 21
-263.901967
 31
0.0
  0
LINE
  5
31E
100
AcDbEntity
  8
0
390
0
  6
Continuous
 62
     7
100
AcDbLine
 10
-10.613643
 20
-263.901967
 30
0.0
 11
-5.30762
 21
-263.901967
 31
0.0
  0
LINE
  5
31F
100
AcDbEntity
  8
0
390
0
  6
Continuous
 62
     7
100
AcDbLine
 10
-5.30762
 20
-263.901967
 30
0.0
 11
-2.652883
 21
-263.901967
 31
0.0
  0
LINE
  5
320
100
AcDbEntity
  8
0
390
0
  6
Continuous
 62
     7
100
AcDbLine
 10
-2.652883
 20
-263.901967
 30
0.0
 11
-0.203328
 21
-263.901967
 31
0.0
  0
LINE
  5
321
100
AcDbEntity
  8
0
390
0
  6
Continuous
 62
     7
100
AcDbLine
 10
-0.203328
 20
-263.901967
 30
0.0
 11
-0.042313
 21
-263.901967
 31
0.0
  0
LINE
  5
322
100
AcDbEntity
  8
0
390
0
  6
Continuous
 62
     7
100
AcDbLine
 10
-0.042313
 20
-263.901967
 30
0.0
 11
2.658487
 21
-263.901967
 31
0.0
  0
LINE
  5
323
100
AcDbEntity
  8
0
390
0
  6
Continuous
 62
     7
100
AcDbLine
 10
2.658487
 20
-263.901967
 30
0.0
 11
108.401765
 21
-263.901967
 31
0.0
  0
CIRCLE
  5
324
100
AcDbEntity
  8
0
390
0
  6
Continuous
 62
     7
100
AcDbCircle
 10
-115.996995
 20
-278.89735
 30
0.0
 40
6.250002
210
0.0
220
0.0
230
1.0
  0
LINE
  5
325
100
AcDbEntity
  8
0
390
0
  6
Continuous
 62
     7
100
AcDbLine
 10
-122.246995
 20
-278.901967
 30
0.0
 11
-122.228619
 21
-278.423052
 31
0.0
  0
ARC
  5
326
100
AcDbEntity
  8
0
390
0
  6
Continuous
 62
     7
100
AcDbCircle
 10
-115.996995
 20
-278.901967
 30
0.0
 40
6.25
210
0.0
220
0.0
230
1.0
100
AcDbArc
 50
180.0
 51
175.605325
  0
CIRCLE
  5
327
100
AcDbEntity
  8
0
390
0
  6
Continuous
 62
     7
100
AcDbCircle
 10
116.003188
 20
-278.906579
 30
0.0
 40
6.250184
210
0.0
220
0.0
230
1.0
  0
CIRCLE
  5
328
100
AcDbEntity
  8
0
390
0
  6
Continuous
 62
     7
100
AcDbCircle
 10
116.003005
 20
-278.901967
 30
0.0
 40
6.25
210
0.0
220
0.0
230
1.0
  0
LINE
  5
329
100
AcDbEntity
  8
0
390
0
  6
Continuous
 62
     7
100
AcDbLine
 10
367.306044
 20
-125.597084
 30
0.0
 11
386.306235
 21
-125.597084
 31
0.0
  0
LINE
  5
32A
100
AcDbEntity
  8
0
390
0
  6
Continuous
 62
     7
100
AcDbLine
 10
370.554627
 20
-125.597084
 30
0.0
 11
367.306044
 21
-125.597084
 31
0.0
  0
LINE
  5
32B
100
AcDbEntity
  8
0
390
0
  6
Continuous
 62
     7
100
AcDbLine
 10
387.306139
 20
-125.019713
 30
0.0
 11
387.306139
 21
-124.081856
 31
0.0
  0
LINE
  5
32C
100
AcDbEntity
  8
0
390
0
  6
Continuous
 62
     7
100
AcDbLine
 10
367.306139
 20
-125.597084
 30
0.0
 11
381.55614
 21
-125.597084
 31
0.0
  0
LINE
  5
32D
100
AcDbEntity
  8
0
390
0
  6
Continuous
 62
     7
100
AcDbLine
 10
381.55614
 20
-125.597084
 30
0.0
 11
386.306139
 21
-125.597084
 31
0.0
  0
LINE
  5
32E
100
AcDbEntity
  8
0
390
0
  6
Continuous
 62
     7
100
AcDbLine
 10
387.306139
 20
-124.081856
 30
0.0
 11
386.409371
 21
-124.360665
 31
0.0
  0
ARC
  5
32F
100
AcDbEntity
  8
0
390
0
  6
Continuous
 62
     7
100
AcDbCircle
 10
382.086709
 20
-110.431744
 30
0.0
 40
14.584246
210
0.0
220
0.0
230
0.9999999999999999
100
AcDbArc
 50
259.348175
 51
287.241059
  0
LINE
  5
330
100
AcDbEntity
  8
0
390
0
  6
Continuous
 62
     7
100
AcDbLine
 10
379.390952
 20
-124.764683
 30
0.0
 11
376.80614
 21
-124.081856
 31
0.0
  0
LINE
  5
331
100
AcDbEntity
  8
0
390
0
  6
Continuous
 62
     7
100
AcDbLine
 10
376.80614
 20
-124.081856
 30
0.0
 11
375.910099
 21
-124.360727
 31
0.0
  0
ARC
  5
332
100
AcDbEntity
  8
0
390
0
  6
Continuous
 62
     7
100
AcDbCircle
 10
371.556103
 20
-110.306536
 30
0.0
 40
14.713176
210
0.0
220
0.0
230
1.0
100
AcDbArc
 50
252.773418
 51
287.21301
  0
LINE
  5
333
100
AcDbEntity
  8
0
390
0
  6
Continuous
 62
     7
100
AcDbLine
 10
367.198778
 20
-124.359695
 30
0.0
 11
366.30614
 21
-124.081856
 31
0.0
  0
LINE
  5
334
100
AcDbEntity
  8
0
390
0
  6
Continuous
 62
     7
100
AcDbLine
 10
366.30614
 20
-124.081856
 30
0.0
 11
366.306139
 21
-125.019713
 31
0.0
  0
LINE
  5
335
100
AcDbEntity
  8
0
390
0
  6
Continuous
 62
     7
100
AcDbLine
 10
376.80614
 20
-115.597084
 30
0.0
 11
387.306139
 21
-115.597084
 31
0.0
  0
LINE
  5
336
100
AcDbEntity
  8
0
390
0
  6
Continuous
 62
     7
100
AcDbLine
 10
366.306139
 20
-115.597084
 30
0.0
 11
371.556139
 21
-115.597084
 31
0.0
  0
LINE
  5
337
100
AcDbEntity
  8
0
390
0
  6
Continuous
 62
     7
100
AcDbLine
 10
371.556139
 20
-115.597084
 30
0.0
 11
376.80614
 21
-115.597084
 31
0.0
  0
LINE
  5
338
100
AcDbEntity
  8
0
390
0
  6
Continuous
 62
     7
100
AcDbLine
 10
387.306139
 20
-124.081856
 30
0.0
 11
387.306139
 21
-124.767459
 31
0.0
  0
LINE
  5
339
100
AcDbEntity
  8
0
390
0
  6
Continuous
 62
     7
100
AcDbLine
 10
387.306139
 20
-124.767459
 30
0.0
 11
387.306139
 21
-125.019432
 31
0.0
  0
LINE
  5
33A
100
AcDbEntity
  8
0
390
0
  6
Continuous
 62
     7
100
AcDbLine
 10
387.306139
 20
-125.019432
 30
0.0
 11
387.306139
 21
-125.019708
 31
0.0
  0
LINE
  5
33B
100
AcDbEntity
  8
0
390
0
  6
Continuous
 62
     7
100
AcDbLine
 10
387.306139
 20
-125.019708
 30
0.0
 11
387.306139
 21
-125.019438
 31
0.0
  0
LINE
  5
33C
100
AcDbEntity
  8
0
390
0
  6
Continuous
 62
     7
100
AcDbLine
 10
387.306139
 20
-125.019438
 30
0.0
 11
387.306139
 21
-124.081856
 31
0.0
  0
LINE
  5
33D
100
AcDbEntity
  8
0
390
0
  6
Continuous
 62
     7
100
AcDbLine
 10
387.306139
 20
-124.081856
 30
0.0
 11
387.306139
 21
-120.391726
 31
0.0
  0
LINE
  5
33E
100
AcDbEntity
  8
0
390
0
  6
Continuous
 62
     7
100
AcDbLine
 10
387.306139
 20
-120.391726
 30
0.0
 11
387.306139
 21
-115.597084
 31
0.0
  0
LINE
  5
33F
100
AcDbEntity
  8
0
390
0
  6
Continuous
 62
     7
100
AcDbLine
 10
387.306139
 20
-115.597084
 30
0.0
 11
387.306139
 21
-120.391726
 31
0.0
  0
LINE
  5
340
100
AcDbEntity
  8
0
390
0
  6
Continuous
 62
     7
100
AcDbLine
 10
387.306139
 20
-120.391726
 30
0.0
 11
387.306139
 21
-124.081856
 31
0.0
  0
LINE
  5
341
100
AcDbEntity
  8
0
390
0
  6
Continuous
 62
     7
100
AcDbLine
 10
376.806139
 20
-115.597084
 30
0.0
 11
387.306139
 21
-115.597084
 31
0.0
  0
LINE
  5
342
100
AcDbEntity
  8
0
390
0
  6
Continuous
 62
     7
100
AcDbLine
 10
376.806139
 20
-124.081856
 30
0.0
 11
376.806139
 21
-115.597084
 31
0.0
  0
LINE
  5
343
100
AcDbEntity
  8
0
390
0
  6
Continuous
 62
     7
100
AcDbLine
 10
387.306139
 20
-124.081856
 30
0.0
 11
386.409393
 21
-124.360637
 31
0.0
  0
ARC
  5
344
100
AcDbEntity
  8
0
390
0
  6
Continuous
 62
     7
100
AcDbCircle
 10
382.086621
 20
-110.430933
 30
0.0
 40
14.585027
210
0.0
220
0.0
230
1.0
100
AcDbArc
 50
259.349109
 51
287.24056
  0
LINE
  5
345
100
AcDbEntity
  8
0
390
0
  6
Continuous
 62
     7
100
AcDbLine
 10
379.390953
 20
-124.764683
 30
0.0
 11
376.806139
 21
-124.081856
 31
0.0
  0
LINE
  5
346
100
AcDbEntity
  8
0
390
0
  6
Continuous
 62
     7
100
AcDbLine
 10
366.306139
 20
-115.597084
 30
0.0
 11
376.806139
 21
-115.597084
 31
0.0
  0
LINE
  5
347
100
AcDbEntity
  8
0
390
0
  6
Continuous
 62
     7
100
AcDbLine
 10
376.806139
 20
-115.597084
 30
0.0
 11
376.806139
 21
-124.081856
 31
0.0
  0
LINE
  5
348
100
AcDbEntity
  8
0
390
0
  6
Continuous
 62
     7
100
AcDbLine
 10
376.806139
 20
-124.081856
 30
0.0
 11
375.910214
 21
-124.360402
 31
0.0
  0
ARC
  5
349
100
AcDbEntity
  8
0
390
0
  6
Continuous
 62
     7
100
AcDbCircle
 10
371.556
 20
-110.312006
 30
0.0
 40
14.707706
210
0.0
220
0.0
230
1.0
100
AcDbArc
 50
252.766893
 51
287.220499
  0
LINE
  5
34A
100
AcDbEntity
  8
0
390
0
  6
Continuous
 62
     7
100
AcDbLine
 10
367.198695
 20
-124.359444
 30
0.0
 11
366.306139
 21
-124.081856
 31
0.0
  0
LINE
  5
34B
100
AcDbEntity
  8
0
390
0
  6
Continuous
 62
     7
100
AcDbLine
 10
366.306139
 20
-124.081856
 30
0.0
 11
366.306139
 21
-123.550072
 31
0.0
  0
LINE
  5
34C
100
AcDbEntity
  8
0
390
0
  6
Continuous
 62
     7
100
AcDbLine
 10
366.306139
 20
-123.550072
 30
0.0
 11
366.306139
 21
-115.597084
 31
0.0
  0
LINE
  5
34D
100
AcDbEntity
  8
0
390
0
  6
Continuous
 62
     7
100
AcDbLine
 10
366.306139
 20
-115.597084
 30
0.0
 11
366.306139
 21
-123.550072
 31
0.0
  0
LINE
  5
34E
100
AcDbEntity
  8
0
390
0
  6
Continuous
 62
     7
100
AcDbLine
 10
366.306139
 20
-123.550072
 30
0.0
 11
366.306139
 21
-124.081856
 31
0.0
  0
LINE
  5
34F
100
AcDbEntity
  8
0
390
0
  6
Continuous
 62
     7
100
AcDbLine
 10
366.306139
 20
-124.081856
 30
0.0
 11
366.306139
 21
-125.019709
 31
0.0
  0
LINE
  5
350
100
AcDbEntity
  8
0
390
0
  6
Continuous
 62
     7
100
AcDbLine
 10
366.306139
 20
-125.019708
 30
0.0
 11
366.306139
 21
-124.081856
 31
0.0
  0
LINE
  5
351
100
AcDbEntity
  8
0
390
0
  6
Continuous
 62
     7
100
AcDbLine
 10
364.30614
 20
-108.097083
 30
0.0
 11
364.30614
 21
-107.097084
 31
0.0
  0
LINE
  5
352
100
AcDbEntity
  8
0
390
0
  6
Continuous
 62
     7
100
AcDbLine
 10
389.30614
 20
-108.097083
 30
0.0
 11
389.30614
 21
-107.097084
 31
0.0
  0
LINE
  5
353
100
AcDbEntity
  8
0
390
0
  6
Continuous
 62
     7
100
AcDbLine
 10
389.30614
 20
-108.097083
 30
0.0
 11
389.30614
 21
-107.097084
 31
0.0
  0
LINE
  5
354
100
AcDbEntity
  8
0
390
0
  6
Continuous
 62
     7
100
AcDbLine
 10
364.30614
 20
-107.097084
 30
0.0
 11
364.30614
 21
-108.097083
 31
0.0
  0
LINE
  5
355
100
AcDbEntity
  8
0
390
0
  6
Continuous
 62
     7
100
AcDbLine
 10
376.806141
 20
-111.597081
 30
0.0
 11
377.112999
 21
-111.597081
 31
0.0
  0
LINE
  5
356
100
AcDbEntity
  8
0
390
0
  6
Continuous
 62
     7
100
AcDbLine
 10
377.112999
 20
-111.597081
 30
0.0
 11
379.17465
 21
-111.597081
 31
0.0
  0
LINE
  5
357
100
AcDbEntity
  8
0
390
0
  6
Continuous
 62
     7
100
AcDbLine
 10
379.17465
 20
-111.597081
 30
0.0
 11
379.398421
 21
-111.597081
 31
0.0
  0
LINE
  5
358
100
AcDbEntity
  8
0
390
0
  6
Continuous
 62
     7
100
AcDbLine
 10
379.398421
 20
-111.597081
 30
0.0
 11
382.250812
 21
-111.597082
 31
0.0
  0
LINE
  5
359
100
AcDbEntity
  8
0
390
0
  6
Continuous
 62
     7
100
AcDbLine
 10
382.250812
 20
-111.597082
 30
0.0
 11
383.706141
 21
-111.597082
 31
0.0
  0
LINE
  5
35A
100
AcDbEntity
  8
0
390
0
  6
Continuous
 62
     7
100
AcDbLine
 10
369.906141
 20
-111.597082
 30
0.0
 11
376.531075
 21
-111.597081
 31
0.0
  0
LINE
  5
35B
100
AcDbEntity
  8
0
390
0
  6
Continuous
 62
     7
100
AcDbLine
 10
376.531075
 20
-111.597081
 30
0.0
 11
376.806141
 21
-111.597081
 31
0.0
  0
LINE
  5
35C
100
AcDbEntity
  8
0
390
0
  6
Continuous
 62
     7
100
AcDbLine
 10
376.806141
 20
-111.597082
 30
0.0
 11
374.264849
 21
-111.597082
 31
0.0
  0
LINE
  5
35D
100
AcDbEntity
  8
0
390
0
  6
Continuous
 62
     7
100
AcDbLine
 10
373.9697
 20
-111.597082
 30
0.0
 11
371.738223
 21
-111.597082
 31
0.0
  0
LINE
  5
35E
100
AcDbEntity
  8
0
390
0
  6
Continuous
 62
     7
100
AcDbLine
 10
382.407425
 20
-111.597082
 30
0.0
 11
381.331625
 21
-111.597082
 31
0.0
  0
LINE
  5
35F
100
AcDbEntity
  8
0
390
0
  6
Continuous
 62
     7
100
AcDbLine
 10
381.331625
 20
-111.597082
 30
0.0
 11
380.354375
 21
-111.597082
 31
0.0
  0
LINE
  5
360
100
AcDbEntity
  8
0
390
0
  6
Continuous
 62
     7
100
AcDbLine
 10
369.906141
 20
-111.597082
 30
0.0
 11
376.531453
 21
-111.597081
 31
0.0
  0
LINE
  5
361
100
AcDbEntity
  8
0
390
0
  6
Continuous
 62
     7
100
AcDbLine
 10
376.531453
 20
-111.597081
 30
0.0
 11
376.806141
 21
-111.597081
 31
0.0
  0
LINE
  5
362
100
AcDbEntity
  8
0
390
0
  6
Continuous
 62
     7
100
AcDbLine
 10
383.706141
 20
-111.597082
 30
0.0
 11
383.70441
 21
-111.597082
 31
0.0
  0
LINE
  5
363
100
AcDbEntity
  8
0
390
0
  6
Continuous
 62
     7
100
AcDbLine
 10
383.70441
 20
-111.597082
 30
0.0
 11
383.206795
 21
-111.597082
 31
0.0
  0
LINE
  5
364
100
AcDbEntity
  8
0
390
0
  6
Continuous
 62
     7
100
AcDbLine
 10
370.405742
 20
-111.597082
 30
0.0
 11
370.358102
 21
-111.597082
 31
0.0
  0
LINE
  5
365
100
AcDbEntity
  8
0
390
0
  6
Continuous
 62
     7
100
AcDbLine
 10
370.358102
 20
-111.597082
 30
0.0
 11
369.906141
 21
-111.597082
 31
0.0
  0
LINE
  5
366
100
AcDbEntity
  8
0
390
0
  6
Continuous
 62
     7
100
AcDbLine
 10
376.806141
 20
-111.597081
 30
0.0
 11
377.252858
 21
-111.597081
 31
0.0
  0
LINE
  5
367
100
AcDbEntity
  8
0
390
0
  6
Continuous
 62
     7
100
AcDbLine
 10
377.252858
 20
-111.597081
 30
0.0
 11
379.174165
 21
-111.597081
 31
0.0
  0
LINE
  5
368
100
AcDbEntity
  8
0
390
0
  6
Continuous
 62
     7
100
AcDbLine
 10
379.174165
 20
-111.597081
 30
0.0
 11
379.397937
 21
-111.597081
 31
0.0
  0
LINE
  5
369
100
AcDbEntity
  8
0
390
0
  6
Continuous
 62
     7
100
AcDbLine
 10
379.397937
 20
-111.597081
 30
0.0
 11
382.249977
 21
-111.597082
 31
0.0
  0
LINE
  5
36A
100
AcDbEntity
  8
0
390
0
  6
Continuous
 62
     7
100
AcDbLine
 10
382.249977
 20
-111.597082
 30
0.0
 11
383.706141
 21
-111.597082
 31
0.0
  0
LINE
  5
36B
100
AcDbEntity
  8
0
390
0
  6
Continuous
 62
     7
100
AcDbLine
 10
391.806141
 20
-108.097082
 30
0.0
 11
391.806141
 21
-109.897081
 31
0.0
  0
LINE
  5
36C
100
AcDbEntity
  8
0
390
0
  6
Continuous
 62
     7
100
AcDbLine
 10
376.806141
 20
-108.097081
 30
0.0
 11
376.806141
 21
-109.897081
 31
0.0
  0
LINE
  5
36D
100
AcDbEntity
  8
0
390
0
  6
Continuous
 62
     7
100
AcDbLine
 10
391.806141
 20
-108.097082
 30
0.0
 11
389.287964
 21
-108.097082
 31
0.0
  0
LINE
  5
36E
100
AcDbEntity
  8
0
390
0
  6
Continuous
 62
     7
100
AcDbLine
 10
389.287964
 20
-108.097082
 30
0.0
 11
389.011214
 21
-108.097082
 31
0.0
  0
LINE
  5
36F
100
AcDbEntity
  8
0
390
0
  6
Continuous
 62
     7
100
AcDbLine
 10
389.011214
 20
-108.097082
 30
0.0
 11
382.081218
 21
-108.097082
 31
0.0
  0
LINE
  5
370
100
AcDbEntity
  8
0
390
0
  6
Continuous
 62
     7
100
AcDbLine
 10
382.081218
 20
-108.097082
 30
0.0
 11
381.590472
 21
-108.097082
 31
0.0
  0
LINE
  5
371
100
AcDbEntity
  8
0
390
0
  6
Continuous
 62
     7
100
AcDbLine
 10
381.590472
 20
-108.097082
 30
0.0
 11
379.003318
 21
-108.097082
 31
0.0
  0
LINE
  5
372
100
AcDbEntity
  8
0
390
0
  6
Continuous
 62
     7
100
AcDbLine
 10
379.003318
 20
-108.097082
 30
0.0
 11
378.530023
 21
-108.097082
 31
0.0
  0
LINE
  5
373
100
AcDbEntity
  8
0
390
0
  6
Continuous
 62
     7
100
AcDbLine
 10
378.530023
 20
-108.097082
 30
0.0
 11
376.806141
 21
-108.097082
 31
0.0
  0
LINE
  5
374
100
AcDbEntity
  8
0
390
0
  6
Continuous
 62
     7
100
AcDbLine
 10
391.806141
 20
-109.897082
 30
0.0
 11
391.806141
 21
-108.097082
 31
0.0
  0
LINE
  5
375
100
AcDbEntity
  8
0
390
0
  6
Continuous
 62
     7
100
AcDbLine
 10
376.806141
 20
-109.897082
 30
0.0
 11
378.53
 21
-109.897082
 31
0.0
  0
LINE
  5
376
100
AcDbEntity
  8
0
390
0
  6
Continuous
 62
     7
100
AcDbLine
 10
378.53
 20
-109.897082
 30
0.0
 11
379.003337
 21
-109.897082
 31
0.0
  0
LINE
  5
377
100
AcDbEntity
  8
0
390
0
  6
Continuous
 62
     7
100
AcDbLine
 10
379.003337
 20
-109.897082
 30
0.0
 11
381.590421
 21
-109.897082
 31
0.0
  0
LINE
  5
378
100
AcDbEntity
  8
0
390
0
  6
Continuous
 62
     7
100
AcDbLine
 10
381.590421
 20
-109.897082
 30
0.0
 11
382.08124
 21
-109.897082
 31
0.0
  0
LINE
  5
379
100
AcDbEntity
  8
0
390
0
  6
Continuous
 62
     7
100
AcDbLine
 10
382.08124
 20
-109.897082
 30
0.0
 11
383.735199
 21
-109.897082
 31
0.0
  0
LINE
  5
37A
100
AcDbEntity
  8
0
390
0
  6
Continuous
 62
     7
100
AcDbLine
 10
383.735199
 20
-109.897082
 30
0.0
 11
384.119271
 21
-109.897082
 31
0.0
  0
LINE
  5
37B
100
AcDbEntity
  8
0
390
0
  6
Continuous
 62
     7
100
AcDbLine
 10
384.119271
 20
-109.897082
 30
0.0
 11
386.858862
 21
-109.897082
 31
0.0
  0
LINE
  5
37C
100
AcDbEntity
  8
0
390
0
  6
Continuous
 62
     7
100
AcDbLine
 10
386.858862
 20
-109.897082
 30
0.0
 11
387.430118
 21
-109.897082
 31
0.0
  0
LINE
  5
37D
100
AcDbEntity
  8
0
390
0
  6
Continuous
 62
     7
100
AcDbLine
 10
387.430118
 20
-109.897082
 30
0.0
 11
387.9176
 21
-109.897082
 31
0.0
  0
LINE
  5
37E
100
AcDbEntity
  8
0
390
0
  6
Continuous
 62
     7
100
AcDbLine
 10
387.9176
 20
-109.897082
 30
0.0
 11
390.945764
 21
-109.897082
 31
0.0
  0
LINE
  5
37F
100
AcDbEntity
  8
0
390
0
  6
Continuous
 62
     7
100
AcDbLine
 10
390.945764
 20
-109.897082
 30
0.0
 11
391.296061
 21
-109.897082
 31
0.0
  0
LINE
  5
380
100
AcDbEntity
  8
0
390
0
  6
Continuous
 62
     7
100
AcDbLine
 10
391.296061
 20
-109.897082
 30
0.0
 11
391.708454
 21
-109.897082
 31
0.0
  0
LINE
  5
381
100
AcDbEntity
  8
0
390
0
  6
Continuous
 62
     7
100
AcDbLine
 10
391.708454
 20
-109.897082
 30
0.0
 11
391.806141
 21
-109.897082
 31
0.0
  0
LINE
  5
382
100
AcDbEntity
  8
0
390
0
  6
Continuous
 62
     7
100
AcDbLine
 10
361.806141
 20
-108.097082
 30
0.0
 11
361.806141
 21
-109.897082
 31
0.0
  0
LINE
  5
383
100
AcDbEntity
  8
0
390
0
  6
Continuous
 62
     7
100
AcDbLine
 10
376.806141
 20
-108.097082
 30
0.0
 11
372.010576
 21
-108.097082
 31
0.0
  0
LINE
  5
384
100
AcDbEntity
  8
0
390
0
  6
Continuous
 62
     7
100
AcDbLine
 10
372.010576
 20
-108.097082
 30
0.0
 11
371.283683
 21
-108.097082
 31
0.0
  0
LINE
  5
385
100
AcDbEntity
  8
0
390
0
  6
Continuous
 62
     7
100
AcDbLine
 10
371.283683
 20
-108.097082
 30
0.0
 11
370.846019
 21
-108.097082
 31
0.0
  0
LINE
  5
386
100
AcDbEntity
  8
0
390
0
  6
Continuous
 62
     7
100
AcDbLine
 10
370.846019
 20
-108.097082
 30
0.0
 11
368.487236
 21
-108.097082
 31
0.0
  0
LINE
  5
387
100
AcDbEntity
  8
0
390
0
  6
Continuous
 62
     7
100
AcDbLine
 10
368.487236
 20
-108.097082
 30
0.0
 11
367.867887
 21
-108.097082
 31
0.0
  0
LINE
  5
388
100
AcDbEntity
  8
0
390
0
  6
Continuous
 62
     7
100
AcDbLine
 10
367.867887
 20
-108.097082
 30
0.0
 11
367.286055
 21
-108.097082
 31
0.0
  0
LINE
  5
389
100
AcDbEntity
  8
0
390
0
  6
Continuous
 62
     7
100
AcDbLine
 10
367.286055
 20
-108.097082
 30
0.0
 11
366.729648
 21
-108.097082
 31
0.0
  0
LINE
  5
38A
100
AcDbEntity
  8
0
390
0
  6
Continuous
 62
     7
100
AcDbLine
 10
366.729648
 20
-108.097082
 30
0.0
 11
366.19954
 21
-108.097082
 31
0.0
  0
LINE
  5
38B
100
AcDbEntity
  8
0
390
0
  6
Continuous
 62
     7
100
AcDbLine
 10
366.19954
 20
-108.097082
 30
0.0
 11
365.060092
 21
-108.097082
 31
0.0
  0
LINE
  5
38C
100
AcDbEntity
  8
0
390
0
  6
Continuous
 62
     7
100
AcDbLine
 10
365.060092
 20
-108.097082
 30
0.0
 11
364.762314
 21
-108.097082
 31
0.0
  0
LINE
  5
38D
100
AcDbEntity
  8
0
390
0
  6
Continuous
 62
     7
100
AcDbLine
 10
364.762314
 20
-108.097082
 30
0.0
 11
361.823972
 21
-108.097082
 31
0.0
  0
LINE
  5
38E
100
AcDbEntity
  8
0
390
0
  6
Continuous
 62
     7
100
AcDbLine
 10
361.823972
 20
-108.097082
 30
0.0
 11
361.806141
 21
-108.097082
 31
0.0
  0
LINE
  5
38F
100
AcDbEntity
  8
0
390
0
  6
Continuous
 62
     7
100
AcDbLine
 10
376.806141
 20
-109.897081
 30
0.0
 11
376.806141
 21
-108.097081
 31
0.0
  0
LINE
  5
390
100
AcDbEntity
  8
0
390
0
  6
Continuous
 62
     7
100
AcDbLine
 10
361.806141
 20
-109.897082
 30
0.0
 11
362.010002
 21
-109.897082
 31
0.0
  0
LINE
  5
391
100
AcDbEntity
  8
0
390
0
  6
Continuous
 62
     7
100
AcDbLine
 10
362.010002
 20
-109.897082
 30
0.0
 11
363.029851
 21
-109.897082
 31
0.0
  0
LINE
  5
392
100
AcDbEntity
  8
0
390
0
  6
Continuous
 62
     7
100
AcDbLine
 10
363.029851
 20
-109.897082
 30
0.0
 11
363.352683
 21
-109.897082
 31
0.0
  0
LINE
  5
393
100
AcDbEntity
  8
0
390
0
  6
Continuous
 62
     7
100
AcDbLine
 10
363.352683
 20
-109.897082
 30
0.0
 11
366.199441
 21
-109.897082
 31
0.0
  0
LINE
  5
394
100
AcDbEntity
  8
0
390
0
  6
Continuous
 62
     7
100
AcDbLine
 10
366.199441
 20
-109.897082
 30
0.0
 11
368.086283
 21
-109.897082
 31
0.0
  0
LINE
  5
395
100
AcDbEntity
  8
0
390
0
  6
Continuous
 62
     7
100
AcDbLine
 10
368.086283
 20
-109.897082
 30
0.0
 11
368.487207
 21
-109.897082
 31
0.0
  0
LINE
  5
396
100
AcDbEntity
  8
0
390
0
  6
Continuous
 62
     7
100
AcDbLine
 10
368.487207
 20
-109.897082
 30
0.0
 11
371.536407
 21
-109.897082
 31
0.0
  0
LINE
  5
397
100
AcDbEntity
  8
0
390
0
  6
Continuous
 62
     7
100
AcDbLine
 10
371.536407
 20
-109.897082
 30
0.0
 11
372.010576
 21
-109.897082
 31
0.0
  0
LINE
  5
398
100
AcDbEntity
  8
0
390
0
  6
Continuous
 62
     7
100
AcDbLine
 10
372.010576
 20
-109.897082
 30
0.0
 11
376.078953
 21
-109.897082
 31
0.0
  0
LINE
  5
399
100
AcDbEntity
  8
0
390
0
  6
Continuous
 62
     7
100
AcDbLine
 10
376.078953
 20
-109.897082
 30
0.0
 11
376.806141
 21
-109.897082
 31
0.0
  0
LINE
  5
39A
100
AcDbEntity
  8
0
390
0
  6
Continuous
 62
     7
100
AcDbLine
 10
361.806141
 20
-109.897081
 30
0.0
 11
361.806141
 21
-108.097082
 31
0.0
  0
LINE
  5
39B
100
AcDbEntity
  8
0
390
0
  6
Continuous
 62
     7
100
AcDbLine
 10
376.806141
 20
-108.097081
 30
0.0
 11
378.529946
 21
-108.097081
 31
0.0
  0
LINE
  5
39C
100
AcDbEntity
  8
0
390
0
  6
Continuous
 62
     7
100
AcDbLine
 10
378.529946
 20
-108.097081
 30
0.0
 11
379.003205
 21
-108.097081
 31
0.0
  0
LINE
  5
39D
100
AcDbEntity
  8
0
390
0
  6
Continuous
 62
     7
100
AcDbLine
 10
379.003205
 20
-108.097081
 30
0.0
 11
381.636163
 21
-108.097081
 31
0.0
  0
LINE
  5
39E
100
AcDbEntity
  8
0
390
0
  6
Continuous
 62
     7
100
AcDbLine
 10
381.636163
 20
-108.097081
 30
0.0
 11
382.081104
 21
-108.097081
 31
0.0
  0
LINE
  5
39F
100
AcDbEntity
  8
0
390
0
  6
Continuous
 62
     7
100
AcDbLine
 10
382.081104
 20
-108.097081
 30
0.0
 11
389.011117
 21
-108.097081
 31
0.0
  0
LINE
  5
3A0
100
AcDbEntity
  8
0
390
0
  6
Continuous
 62
     7
100
AcDbLine
 10
389.011117
 20
-108.097081
 30
0.0
 11
389.290428
 21
-108.097081
 31
0.0
  0
LINE
  5
3A1
100
AcDbEntity
  8
0
390
0
  6
Continuous
 62
     7
100
AcDbLine
 10
389.290428
 20
-108.097081
 30
0.0
 11
391.806141
 21
-108.097082
 31
0.0
  0
LINE
  5
3A2
100
AcDbEntity
  8
0
390
0
  6
Continuous
 62
     7
100
AcDbLine
 10
361.806141
 20
-108.097082
 30
0.0
 11
361.823899
 21
-108.097082
 31
0.0
  0
LINE
  5
3A3
100
AcDbEntity
  8
0
390
0
  6
Continuous
 62
     7
100
AcDbLine
 10
361.823899
 20
-108.097082
 30
0.0
 11
364.770459
 21
-108.097081
 31
0.0
  0
LINE
  5
3A4
100
AcDbEntity
  8
0
390
0
  6
Continuous
 62
     7
100
AcDbLine
 10
364.770459
 20
-108.097081
 30
0.0
 11
365.060004
 21
-108.097081
 31
0.0
  0
LINE
  5
3A5
100
AcDbEntity
  8
0
390
0
  6
Continuous
 62
     7
100
AcDbLine
 10
365.060004
 20
-108.097081
 30
0.0
 11
366.19954
 21
-108.097081
 31
0.0
  0
LINE
  5
3A6
100
AcDbEntity
  8
0
390
0
  6
Continuous
 62
     7
100
AcDbLine
 10
366.19954
 20
-108.097081
 30
0.0
 11
366.729638
 21
-108.097081
 31
0.0
  0
LINE
  5
3A7
100
AcDbEntity
  8
0
390
0
  6
Continuous
 62
     7
100
AcDbLine
 10
366.729638
 20
-108.097081
 30
0.0
 11
367.285961
 21
-108.097081
 31
0.0
  0
LINE
  5
3A8
100
AcDbEntity
  8
0
390
0
  6
Continuous
 62
     7
100
AcDbLine
 10
367.285961
 20
-108.097081
 30
0.0
 11
367.867723
 21
-108.097081
 31
0.0
  0
LINE
  5
3A9
100
AcDbEntity
  8
0
390
0
  6
Continuous
 62
     7
100
AcDbLine
 10
367.867723
 20
-108.097081
 30
0.0
 11
368.492243
 21
-108.097081
 31
0.0
  0
LINE
  5
3AA
100
AcDbEntity
  8
0
390
0
  6
Continuous
 62
     7
100
AcDbLine
 10
368.492243
 20
-108.097081
 30
0.0
 11
370.845727
 21
-108.097081
 31
0.0
  0
LINE
  5
3AB
100
AcDbEntity
  8
0
390
0
  6
Continuous
 62
     7
100
AcDbLine
 10
370.845727
 20
-108.097081
 30
0.0
 11
371.283951
 21
-108.097081
 31
0.0
  0
LINE
  5
3AC
100
AcDbEntity
  8
0
390
0
  6
Continuous
 62
     7
100
AcDbLine
 10
371.283951
 20
-108.097081
 30
0.0
 11
372.010655
 21
-108.097081
 31
0.0
  0
LINE
  5
3AD
100
AcDbEntity
  8
0
390
0
  6
Continuous
 62
     7
100
AcDbLine
 10
372.010655
 20
-108.097081
 30
0.0
 11
376.806141
 21
-108.097081
 31
0.0
  0
LINE
  5
3AE
100
AcDbEntity
  8
0
390
0
  6
Continuous
 62
     7
100
AcDbLine
 10
364.25343
 20
-108.097087
 30
0.0
 11
363.495042
 21
-108.097086
 31
0.0
  0
LINE
  5
3AF
100
AcDbEntity
  8
0
390
0
  6
Continuous
 62
     7
100
AcDbLine
 10
363.495042
 20
-108.097086
 30
0.0
 11
362.316095
 21
-108.097086
 31
0.0
  0
LINE
  5
3B0
100
AcDbEntity
  8
0
390
0
  6
Continuous
 62
     7
100
AcDbLine
 10
362.316095
 20
-108.097086
 30
0.0
 11
361.903647
 21
-108.097086
 31
0.0
  0
LINE
  5
3B1
100
AcDbEntity
  8
0
390
0
  6
Continuous
 62
     7
100
AcDbLine
 10
361.903647
 20
-108.097086
 30
0.0
 11
361.820278
 21
-108.097086
 31
0.0
  0
LINE
  5
3B2
100
AcDbEntity
  8
0
390
0
  6
Continuous
 62
     7
100
AcDbLine
 10
361.820278
 20
-108.097086
 30
0.0
 11
361.806137
 21
-108.097086
 31
0.0
  0
LINE
  5
3B3
100
AcDbEntity
  8
0
390
0
  6
Continuous
 62
     7
100
AcDbLine
 10
391.806137
 20
-108.097086
 30
0.0
 11
390.443762
 21
-108.097086
 31
0.0
  0
LINE
  5
3B4
100
AcDbEntity
  8
0
390
0
  6
Continuous
 62
     7
100
AcDbLine
 10
390.443762
 20
-108.097086
 30
0.0
 11
390.259663
 21
-108.097086
 31
0.0
  0
LINE
  5
3B5
100
AcDbEntity
  8
0
390
0
  6
Continuous
 62
     7
100
AcDbLine
 10
390.259663
 20
-108.097086
 30
0.0
 11
389.358697
 21
-108.097086
 31
0.0
  0
LINE
  5
3B6
100
AcDbEntity
  8
0
390
0
  6
Continuous
 62
     7
100
AcDbLine
 10
376.806141
 20
-108.097082
 30
0.0
 11
374.140193
 21
-108.097082
 31
0.0
  0
LINE
  5
3B7
100
AcDbEntity
  8
0
390
0
  6
Continuous
 62
     7
100
AcDbLine
 10
374.140193
 20
-108.097082
 30
0.0
 11
373.9697
 21
-108.097082
 31
0.0
  0
LINE
  5
3B8
100
AcDbEntity
  8
0
390
0
  6
Continuous
 62
     7
100
AcDbLine
 10
373.9697
 20
-108.097082
 30
0.0
 11
372.796802
 21
-108.097082
 31
0.0
  0
LINE
  5
3B9
100
AcDbEntity
  8
0
390
0
  6
Continuous
 62
     7
100
AcDbLine
 10
372.796802
 20
-108.097082
 30
0.0
 11
371.663746
 21
-108.097082
 31
0.0
  0
LINE
  5
3BA
100
AcDbEntity
  8
0
390
0
  6
Continuous
 62
     7
100
AcDbLine
 10
371.663746
 20
-108.097082
 30
0.0
 11
370.407626
 21
-108.097082
 31
0.0
  0
LINE
  5
3BB
100
AcDbEntity
  8
0
390
0
  6
Continuous
 62
     7
100
AcDbLine
 10
370.407626
 20
-108.097082
 30
0.0
 11
370.406141
 21
-108.097082
 31
0.0
  0
LINE
  5
3BC
100
AcDbEntity
  8
0
390
0
  6
Continuous
 62
     7
100
AcDbLine
 10
370.406141
 20
-108.097082
 30
0.0
 11
370.475331
 21
-108.097082
 31
0.0
  0
LINE
  5
3BD
100
AcDbEntity
  8
0
390
0
  6
Continuous
 62
     7
100
AcDbLine
 10
370.475331
 20
-108.097082
 30
0.0
 11
371.398491
 21
-108.097082
 31
0.0
  0
LINE
  5
3BE
100
AcDbEntity
  8
0
390
0
  6
Continuous
 62
     7
100
AcDbLine
 10
382.71897
 20
-108.097082
 30
0.0
 11
383.204657
 21
-108.097082
 31
0.0
  0
LINE
  5
3BF
100
AcDbEntity
  8
0
390
0
  6
Continuous
 62
     7
100
AcDbLine
 10
383.204657
 20
-108.097082
 30
0.0
 11
383.206141
 21
-108.097082
 31
0.0
  0
LINE
  5
3C0
100
AcDbEntity
  8
0
390
0
  6
Continuous
 62
     7
100
AcDbLine
 10
383.206141
 20
-108.097082
 30
0.0
 11
382.987497
 21
-108.097082
 31
0.0
  0
LINE
  5
3C1
100
AcDbEntity
  8
0
390
0
  6
Continuous
 62
     7
100
AcDbLine
 10
382.987497
 20
-108.097082
 30
0.0
 11
381.795607
 21
-108.097082
 31
0.0
  0
LINE
  5
3C2
100
AcDbEntity
  8
0
390
0
  6
Continuous
 62
     7
100
AcDbLine
 10
381.795607
 20
-108.097082
 30
0.0
 11
380.469904
 21
-108.097082
 31
0.0
  0
LINE
  5
3C3
100
AcDbEntity
  8
0
390
0
  6
Continuous
 62
     7
100
AcDbLine
 10
380.469904
 20
-108.097082
 30
0.0
 11
379.682229
 21
-108.097082
 31
0.0
  0
LINE
  5
3C4
100
AcDbEntity
  8
0
390
0
  6
Continuous
 62
     7
100
AcDbLine
 10
379.682229
 20
-108.097082
 30
0.0
 11
379.255315
 21
-108.097082
 31
0.0
  0
LINE
  5
3C5
100
AcDbEntity
  8
0
390
0
  6
Continuous
 62
     7
100
AcDbLine
 10
379.255315
 20
-108.097082
 30
0.0
 11
379.123286
 21
-108.097082
 31
0.0
  0
LINE
  5
3C6
100
AcDbEntity
  8
0
390
0
  6
Continuous
 62
     7
100
AcDbLine
 10
379.123286
 20
-108.097082
 30
0.0
 11
377.907665
 21
-108.097082
 31
0.0
  0
LINE
  5
3C7
100
AcDbEntity
  8
0
390
0
  6
Continuous
 62
     7
100
AcDbLine
 10
377.907665
 20
-108.097082
 30
0.0
 11
377.223612
 21
-108.097082
 31
0.0
  0
LINE
  5
3C8
100
AcDbEntity
  8
0
390
0
  6
Continuous
 62
     7
100
AcDbLine
 10
377.223612
 20
-108.097082
 30
0.0
 11
376.806141
 21
-108.097082
 31
0.0
  0
LINE
  5
3C9
100
AcDbEntity
  8
0
390
0
  6
Continuous
 62
     7
100
AcDbLine
 10
361.806141
 20
-109.897082
 30
0.0
 11
362.009932
 21
-109.897082
 31
0.0
  0
LINE
  5
3CA
100
AcDbEntity
  8
0
390
0
  6
Continuous
 62
     7
100
AcDbLine
 10
362.009932
 20
-109.897082
 30
0.0
 11
363.029965
 21
-109.897082
 31
0.0
  0
LINE
  5
3CB
100
AcDbEntity
  8
0
390
0
  6
Continuous
 62
     7
100
AcDbLine
 10
363.029965
 20
-109.897082
 30
0.0
 11
363.352619
 21
-109.897081
 31
0.0
  0
LINE
  5
3CC
100
AcDbEntity
  8
0
390
0
  6
Continuous
 62
     7
100
AcDbLine
 10
363.352619
 20
-109.897081
 30
0.0
 11
366.199441
 21
-109.897081
 31
0.0
  0
LINE
  5
3CD
100
AcDbEntity
  8
0
390
0
  6
Continuous
 62
     7
100
AcDbLine
 10
366.199441
 20
-109.897081
 30
0.0
 11
368.086079
 21
-109.897081
 31
0.0
  0
LINE
  5
3CE
100
AcDbEntity
  8
0
390
0
  6
Continuous
 62
     7
100
AcDbLine
 10
368.086079
 20
-109.897081
 30
0.0
 11
368.492243
 21
-109.897081
 31
0.0
  0
LINE
  5
3CF
100
AcDbEntity
  8
0
390
0
  6
Continuous
 62
     7
100
AcDbLine
 10
368.492243
 20
-109.897081
 30
0.0
 11
371.536502
 21
-109.897081
 31
0.0
  0
LINE
  5
3D0
100
AcDbEntity
  8
0
390
0
  6
Continuous
 62
     7
100
AcDbLine
 10
371.536502
 20
-109.897081
 30
0.0
 11
372.010655
 21
-109.897081
 31
0.0
  0
LINE
  5
3D1
100
AcDbEntity
  8
0
390
0
  6
Continuous
 62
     7
100
AcDbLine
 10
372.010655
 20
-109.897081
 30
0.0
 11
376.078848
 21
-109.897081
 31
0.0
  0
LINE
  5
3D2
100
AcDbEntity
  8
0
390
0
  6
Continuous
 62
     7
100
AcDbLine
 10
376.078848
 20
-109.897081
 30
0.0
 11
376.806141
 21
-109.897081
 31
0.0
  0
LINE
  5
3D3
100
AcDbEntity
  8
0
390
0
  6
Continuous
 62
     7
100
AcDbLine
 10
376.806141
 20
-109.897081
 30
0.0
 11
378.529924
 21
-109.897081
 31
0.0
  0
LINE
  5
3D4
100
AcDbEntity
  8
0
390
0
  6
Continuous
 62
     7
100
AcDbLine
 10
378.529924
 20
-109.897081
 30
0.0
 11
379.003225
 21
-109.897081
 31
0.0
  0
LINE
  5
3D5
100
AcDbEntity
  8
0
390
0
  6
Continuous
 62
     7
100
AcDbLine
 10
379.003225
 20
-109.897081
 30
0.0
 11
381.636163
 21
-109.897081
 31
0.0
  0
LINE
  5
3D6
100
AcDbEntity
  8
0
390
0
  6
Continuous
 62
     7
100
AcDbLine
 10
381.636163
 20
-109.897081
 30
0.0
 11
382.081126
 21
-109.897081
 31
0.0
  0
LINE
  5
3D7
100
AcDbEntity
  8
0
390
0
  6
Continuous
 62
     7
100
AcDbLine
 10
382.081126
 20
-109.897081
 30
0.0
 11
383.735269
 21
-109.897081
 31
0.0
  0
LINE
  5
3D8
100
AcDbEntity
  8
0
390
0
  6
Continuous
 62
     7
100
AcDbLine
 10
383.735269
 20
-109.897081
 30
0.0
 11
384.119294
 21
-109.897081
 31
0.0
  0
LINE
  5
3D9
100
AcDbEntity
  8
0
390
0
  6
Continuous
 62
     7
100
AcDbLine
 10
384.119294
 20
-109.897081
 30
0.0
 11
386.878772
 21
-109.897081
 31
0.0
  0
LINE
  5
3DA
100
AcDbEntity
  8
0
390
0
  6
Continuous
 62
     7
100
AcDbLine
 10
386.878772
 20
-109.897081
 30
0.0
 11
387.412743
 21
-109.897081
 31
0.0
  0
LINE
  5
3DB
100
AcDbEntity
  8
0
390
0
  6
Continuous
 62
     7
100
AcDbLine
 10
387.412743
 20
-109.897081
 30
0.0
 11
387.917736
 21
-109.897081
 31
0.0
  0
LINE
  5
3DC
100
AcDbEntity
  8
0
390
0
  6
Continuous
 62
     7
100
AcDbLine
 10
387.917736
 20
-109.897081
 30
0.0
 11
390.886882
 21
-109.897081
 31
0.0
  0
LINE
  5
3DD
100
AcDbEntity
  8
0
390
0
  6
Continuous
 62
     7
100
AcDbLine
 10
390.886882
 20
-109.897081
 30
0.0
 11
391.296183
 21
-109.897082
 31
0.0
  0
LINE
  5
3DE
100
AcDbEntity
  8
0
390
0
  6
Continuous
 62
     7
100
AcDbLine
 10
391.296183
 20
-109.897082
 30
0.0
 11
391.708631
 21
-109.897082
 31
0.0
  0
LINE
  5
3DF
100
AcDbEntity
  8
0
390
0
  6
Continuous
 62
     7
100
AcDbLine
 10
391.708631
 20
-109.897082
 30
0.0
 11
391.806141
 21
-109.897082
 31
0.0
  0
LINE
  5
3E0
100
AcDbEntity
  8
0
390
0
  6
Continuous
 62
     7
100
AcDbLine
 10
391.806137
 20
-109.897086
 30
0.0
 11
391.111766
 21
-109.897086
 31
0.0
  0
LINE
  5
3E1
100
AcDbEntity
  8
0
390
0
  6
Continuous
 62
     7
100
AcDbLine
 10
391.111766
 20
-109.897086
 30
0.0
 11
389.620931
 21
-109.897086
 31
0.0
  0
LINE
  5
3E2
100
AcDbEntity
  8
0
390
0
  6
Continuous
 62
     7
100
AcDbLine
 10
389.620931
 20
-109.897086
 30
0.0
 11
387.914602
 21
-109.897087
 31
0.0
  0
LINE
  5
3E3
100
AcDbEntity
  8
0
390
0
  6
Continuous
 62
     7
100
AcDbLine
 10
387.914602
 20
-109.897087
 30
0.0
 11
387.873759
 21
-109.897087
 31
0.0
  0
LINE
  5
3E4
100
AcDbEntity
  8
0
390
0
  6
Continuous
 62
     7
100
AcDbLine
 10
365.736846
 20
-109.897087
 30
0.0
 11
365.694518
 21
-109.897087
 31
0.0
  0
LINE
  5
3E5
100
AcDbEntity
  8
0
390
0
  6
Continuous
 62
     7
100
AcDbLine
 10
365.694518
 20
-109.897087
 30
0.0
 11
364.699234
 21
-109.897087
 31
0.0
  0
LINE
  5
3E6
100
AcDbEntity
  8
0
390
0
  6
Continuous
 62
     7
100
AcDbLine
 10
364.699234
 20
-109.897087
 30
0.0
 11
362.316101
 21
-109.897086
 31
0.0
  0
LINE
  5
3E7
100
AcDbEntity
  8
0
390
0
  6
Continuous
 62
     7
100
AcDbLine
 10
362.316101
 20
-109.897086
 30
0.0
 11
361.903644
 21
-109.897086
 31
0.0
  0
LINE
  5
3E8
100
AcDbEntity
  8
0
390
0
  6
Continuous
 62
     7
100
AcDbLine
 10
361.903644
 20
-109.897086
 30
0.0
 11
361.809637
 21
-109.897086
 31
0.0
  0
LINE
  5
3E9
100
AcDbEntity
  8
0
390
0
  6
Continuous
 62
     7
100
AcDbLine
 10
361.809637
 20
-109.897086
 30
0.0
 11
361.806137
 21
-109.897086
 31
0.0
  0
LINE
  5
3EA
100
AcDbEntity
  8
0
390
0
  6
Continuous
 62
     7
100
AcDbLine
 10
376.806141
 20
-109.897081
 30
0.0
 11
376.499292
 21
-109.897081
 31
0.0
  0
LINE
  5
3EB
100
AcDbEntity
  8
0
390
0
  6
Continuous
 62
     7
100
AcDbLine
 10
376.499292
 20
-109.897081
 30
0.0
 11
376.295135
 21
-109.897081
 31
0.0
  0
LINE
  5
3EC
100
AcDbEntity
  8
0
390
0
  6
Continuous
 62
     7
100
AcDbLine
 10
376.295135
 20
-109.897081
 30
0.0
 11
374.218459
 21
-109.897082
 31
0.0
  0
LINE
  5
3ED
100
AcDbEntity
  8
0
390
0
  6
Continuous
 62
     7
100
AcDbLine
 10
374.218459
 20
-109.897082
 30
0.0
 11
374.165626
 21
-109.897082
 31
0.0
  0
LINE
  5
3EE
100
AcDbEntity
  8
0
390
0
  6
Continuous
 62
     7
100
AcDbLine
 10
374.165626
 20
-109.897082
 30
0.0
 11
373.347305
 21
-109.897082
 31
0.0
  0
LINE
  5
3EF
100
AcDbEntity
  8
0
390
0
  6
Continuous
 62
     7
100
AcDbLine
 10
373.347305
 20
-109.897082
 30
0.0
 11
371.715357
 21
-109.897082
 31
0.0
  0
LINE
  5
3F0
100
AcDbEntity
  8
0
390
0
  6
Continuous
 62
     7
100
AcDbLine
 10
371.715357
 20
-109.897082
 30
0.0
 11
369.906141
 21
-109.897082
 31
0.0
  0
LINE
  5
3F1
100
AcDbEntity
  8
0
390
0
  6
Continuous
 62
     7
100
AcDbLine
 10
383.706141
 20
-109.897082
 30
0.0
 11
381.69878
 21
-109.897082
 31
0.0
  0
LINE
  5
3F2
100
AcDbEntity
  8
0
390
0
  6
Continuous
 62
     7
100
AcDbLine
 10
381.69878
 20
-109.897082
 30
0.0
 11
379.99034
 21
-109.897082
 31
0.0
  0
LINE
  5
3F3
100
AcDbEntity
  8
0
390
0
  6
Continuous
 62
     7
100
AcDbLine
 10
379.99034
 20
-109.897082
 30
0.0
 11
378.172794
 21
-109.897081
 31
0.0
  0
LINE
  5
3F4
100
AcDbEntity
  8
0
390
0
  6
Continuous
 62
     7
100
AcDbLine
 10
378.172794
 20
-109.897081
 30
0.0
 11
377.70062
 21
-109.897081
 31
0.0
  0
LINE
  5
3F5
100
AcDbEntity
  8
0
390
0
  6
Continuous
 62
     7
100
AcDbLine
 10
377.70062
 20
-109.897081
 30
0.0
 11
377.62206
 21
-109.897081
 31
0.0
  0
LINE
  5
3F6
100
AcDbEntity
  8
0
390
0
  6
Continuous
 62
     7
100
AcDbLine
 10
377.62206
 20
-109.897081
 30
0.0
 11
377.081232
 21
-109.897081
 31
0.0
  0
LINE
  5
3F7
100
AcDbEntity
  8
0
390
0
  6
Continuous
 62
     7
100
AcDbLine
 10
377.081232
 20
-109.897081
 30
0.0
 11
376.806141
 21
-109.897081
 31
0.0
  0
LINE
  5
3F8
100
AcDbEntity
  8
0
390
0
  6
Continuous
 62
     7
100
AcDbLine
 10
391.806139
 20
110.602916
 30
0.0
 11
391.806139
 21
-107.097084
 31
0.0
  0
LINE
  5
3F9
100
AcDbEntity
  8
0
390
0
  6
Continuous
 62
     7
100
AcDbLine
 10
361.806139
 20
-107.097084
 30
0.0
 11
361.806139
 21
110.602916
 31
0.0
  0
LINE
  5
3FA
100
AcDbEntity
  8
0
390
0
  6
Continuous
 62
     7
100
AcDbLine
 10
391.806139
 20
-107.097084
 30
0.0
 11
384.649859
 21
-107.097084
 31
0.0
  0
LINE
  5
3FB
100
AcDbEntity
  8
0
390
0
  6
Continuous
 62
     7
100
AcDbLine
 10
384.649859
 20
-107.097084
 30
0.0
 11
384.606139
 21
-107.097084
 31
0.0
  0
LINE
  5
3FC
100
AcDbEntity
  8
0
390
0
  6
Continuous
 62
     7
100
AcDbLine
 10
384.606139
 20
-107.097084
 30
0.0
 11
369.006139
 21
-107.097084
 31
0.0
  0
LINE
  5
3FD
100
AcDbEntity
  8
0
390
0
  6
Continuous
 62
     7
100
AcDbLine
 10
369.006139
 20
-107.097084
 30
0.0
 11
361.806139
 21
-107.097084
 31
0.0
  0
LINE
  5
3FE
100
AcDbEntity
  8
0
390
0
  6
Continuous
 62
     7
100
AcDbLine
 10
391.806139
 20
-107.097084
 30
0.0
 11
391.806139
 21
110.602916
 31
0.0
  0
LINE
  5
3FF
100
AcDbEntity
  8
0
390
0
  6
Continuous
 62
     7
100
AcDbLine
 10
361.806139
 20
-107.097084
 30
0.0
 11
361.806139
 21
110.602916
 31
0.0
  0
LINE
  5
400
100
AcDbEntity
  8
0
390
0
  6
Continuous
 62
     7
100
AcDbLine
 10
361.806139
 20
-107.097084
 30
0.0
 11
368.938243
 21
-107.097084
 31
0.0
  0
LINE
  5
401
100
AcDbEntity
  8
0
390
0
  6
Continuous
 62
     7
100
AcDbLine
 10
368.938243
 20
-107.097084
 30
0.0
 11
368.946623
 21
-107.097084
 31
0.0
  0
LINE
  5
402
100
AcDbEntity
  8
0
390
0
  6
Continuous
 62
     7
100
AcDbLine
 10
368.946623
 20
-107.097084
 30
0.0
 11
369.006352
 21
-107.097084
 31
0.0
  0
LINE
  5
403
100
AcDbEntity
  8
0
390
0
  6
Continuous
 62
     7
100
AcDbLine
 10
369.006139
 20
-107.097084
 30
0.0
 11
384.678009
 21
-107.097084
 31
0.0
  0
LINE
  5
404
100
AcDbEntity
  8
0
390
0
  6
Continuous
 62
     7
100
AcDbLine
 10
384.678009
 20
-107.097084
 30
0.0
 11
384.722693
 21
-107.097084
 31
0.0
  0
LINE
  5
405
100
AcDbEntity
  8
0
390
0
  6
Continuous
 62
     7
100
AcDbLine
 10
384.722693
 20
-107.097084
 30
0.0
 11
391.806139
 21
-107.097084
 31
0.0
  0
LINE
  5
406
100
AcDbEntity
  8
0
390
0
  6
Continuous
 62
     7
100
AcDbLine
 10
370.556139
 20
-155.597084
 30
0.0
 11
376.73112
 21
-155.597084
 31
0.0
  0
LINE
  5
407
100
AcDbEntity
  8
0
390
0
  6
Continuous
 62
     7
100
AcDbLine
 10
376.73112
 20
-155.597084
 30
0.0
 11
376.881159
 21
-155.597084
 31
0.0
  0
LINE
  5
408
100
AcDbEntity
  8
0
390
0
  6
Continuous
 62
     7
100
AcDbLine
 10
376.881159
 20
-155.597084
 30
0.0
 11
383.056139
 21
-155.597084
 31
0.0
  0
LINE
  5
409
100
AcDbEntity
  8
0
390
0
  6
Continuous
 62
     7
100
AcDbLine
 10
370.556139
 20
-155.597084
 30
0.0
 11
376.879932
 21
-155.597084
 31
0.0
  0
LINE
  5
40A
100
AcDbEntity
  8
0
390
0
  6
Continuous
 62
     7
100
AcDbLine
 10
376.879932
 20
-155.597084
 30
0.0
 11
383.056139
 21
-155.597084
 31
0.0
  0
LINE
  5
40B
100
AcDbEntity
  8
0
390
0
  6
Continuous
 62
     7
100
AcDbLine
 10
366.306004
 20
-125.019635
 30
0.0
 11
367.306139
 21
-125.597084
 31
0.0
  0
LINE
  5
40C
100
AcDbEntity
  8
0
390
0
  6
Continuous
 62
     7
100
AcDbLine
 10
386.306139
 20
-125.597084
 30
0.0
 11
387.306274
 21
-125.019635
 31
0.0
  0
LINE
  5
40D
100
AcDbEntity
  8
0
390
0
  6
Continuous
 62
     7
100
AcDbLine
 10
369.906141
 20
-109.897081
 30
0.0
 11
369.906141
 21
-111.597082
 31
0.0
  0
LINE
  5
40E
100
AcDbEntity
  8
0
390
0
  6
Continuous
 62
     7
100
AcDbLine
 10
383.706141
 20
-111.597082
 30
0.0
 11
383.706141
 21
-109.897081
 31
0.0
  0
LINE
  5
40F
100
AcDbEntity
  8
0
390
0
  6
Continuous
 62
     7
100
AcDbLine
 10
382.406139
 20
-115.597084
 30
0.0
 11
382.406139
 21
-111.564078
 31
0.0
  0
LINE
  5
410
100
AcDbEntity
  8
0
390
0
  6
Continuous
 62
     7
100
AcDbLine
 10
382.406139
 20
-108.058733
 30
0.0
 11
382.406139
 21
-107.160912
 31
0.0
  0
LINE
  5
411
100
AcDbEntity
  8
0
390
0
  6
Continuous
 62
     7
100
AcDbLine
 10
382.406139
 20
-107.160912
 30
0.0
 11
382.406139
 21
-107.061243
 31
0.0
  0
LINE
  5
412
100
AcDbEntity
  8
0
390
0
  6
Continuous
 62
     7
100
AcDbLine
 10
371.206139
 20
-107.063886
 30
0.0
 11
371.206139
 21
-107.163126
 31
0.0
  0
LINE
  5
413
100
AcDbEntity
  8
0
390
0
  6
Continuous
 62
     7
100
AcDbLine
 10
371.206139
 20
-107.163126
 30
0.0
 11
371.206139
 21
-108.057518
 31
0.0
  0
LINE
  5
414
100
AcDbEntity
  8
0
390
0
  6
Continuous
 62
     7
100
AcDbLine
 10
371.206139
 20
-111.556807
 30
0.0
 11
371.206139
 21
-115.597084
 31
0.0
  0
LINE
  5
415
100
AcDbEntity
  8
0
390
0
  6
Continuous
 62
     7
100
AcDbLine
 10
370.556139
 20
-125.597084
 30
0.0
 11
370.556139
 21
-155.597084
 31
0.0
  0
LINE
  5
416
100
AcDbEntity
  8
0
390
0
  6
Continuous
 62
     7
100
AcDbLine
 10
383.056139
 20
-155.597084
 30
0.0
 11
383.056139
 21
-125.597084
 31
0.0
  0
POINT
  5
417
100
AcDbEntity
  8
0
390
0
 62
     7
100
AcDbPoint
 10
0.0
 20
0.0
 30
0.0
  0
POINT
  5
418
100
AcDbEntity
  8
0
390
0
 62
     7
100
AcDbPoint
 10
0.0
 20
0.0
 30
0.0
  0
LINE
  5
419
100
AcDbEntity
  8
0
390
0
  6
Continuous
 62
     7
100
AcDbLine
 10
361.806139
 20
110.602916
 30
0.0
 11
367.006139
 21
110.602916
 31
0.0
  0
ARC
  5
41A
100
AcDbEntity
  8
0
390
0
  6
Continuous
 62
     7
100
AcDbCircle
 10
367.00614
 20
112.602915
 30
0.0
 40
1.999999
210
0.0
220
0.0
230
1.0
100
AcDbArc
 50
269.999957
 51
0.000043
  0
LINE
  5
41B
100
AcDbEntity
  8
0
390
0
  6
Continuous
 62
     7
100
AcDbLine
 10
369.006139
 20
-107.097084
 30
0.0
 11
369.006139
 21
115.995431
 31
0.0
  0
ARC
  5
41C
100
AcDbEntity
  8
0
390
0
  6
Continuous
 62
     7
100
AcDbCircle
 10
376.806139
 20
115.995431
 30
0.0
 40
7.8
210
0.0
220
0.0
230
1.0
100
AcDbArc
 50
0.0
 51
180.0
  0
LINE
  5
41D
100
AcDbEntity
  8
0
390
0
  6
Continuous
 62
     7
100
AcDbLine
 10
384.606139
 20
115.995431
 30
0.0
 11
384.606139
 21
-107.097084
 31
0.0
  0
ARC
  5
41E
100
AcDbEntity
  8
0
390
0
  6
Continuous
 62
     7
100
AcDbCircle
 10
386.606138
 20
112.602915
 30
0.0
 40
1.999999
210
0.0
220
0.0
230
1.0
100
AcDbArc
 50
179.999957
 51
270.000043
  0
LINE
  5
41F
100
AcDbEntity
  8
0
390
0
  6
Continuous
 62
     7
100
AcDbLine
 10
386.606139
 20
110.602916
 30
0.0
 11
391.806139
 21
110.602916
 31
0.0
  0
ENDSEC
  0
SECTION
  2
OBJECTS
  0
DICTIONARY
  5
19
100
AcDbDictionary
280
     0
281
     1
  3
ACAD_GROUP
350
1A
  3
ACAD_MLINESTYLE
350
1B
  3
ACAD_LAYOUT
350
1E
  3
ACAD_PLOTSETTINGS
350
22
  3
ACAD_PLOTSTYLENAME
350
1F
  3
ACAD_WIPEOUT_VARS
350
23
  0
DICTIONARY
  5
1A
102
{ACAD_REACTORS
330
19
102
}
100
AcDbDictionary
280
     0
281
     1
  0
DICTIONARY
  5
1B
102
{ACAD_REACTORS
330
19
102
}
100
AcDbDictionary
280
     0
281
     1
  3
Standard
350
1C
  0
MLINESTYLE
  5
1C
102
{ACAD_REACTORS
330
1B
102
}
100
AcDbMlineStyle
  2
Standard
 70
     0
  3

 62
     0
 51
90.0
 52
90.0
 71
     2
 49
0.5
 62
   256
  6
ByLayer
 49
-0.5
 62
   256
  6
ByLayer
  0
ACDBDICTIONARYWDFLT
  5
1F
102
{ACAD_REACTORS
330
19
102
}
100
AcDbDictionary
281
     1
  3
Normal
350
1D
100
AcDbDictionaryWithDefault
340
1D
  0
ACDBPLACEHOLDER
  5
1D
102
{ACAD_REACTORS
330
1F
102
}
  0
LAYOUT
  5
20
102
{ACAD_REACTORS
330
1E
102
}
100
AcDbPlotSettings
  1

  2

  4

  6

 40
0.0
 41
0.0
 42
0.0
 43
0.0
 44
0.0
 45
0.0
 46
0.0
 47
0.0
 48
0.0
 49
0.0
140
0.0
141
0.0
142
1.0
143
1.0
 70
  1024
 72
     0
 73
     0
 74
     0
  7

 75
     0
147
1.0
148
0.0
149
0.0
100
AcDbLayout
  1
Model
 70
     0
 71
     1
 10
0.0
 20
0.0
 11
0.0
 21
0.0
 12
0.0
 22
0.0
 32
0.0
 14
0.0
 24
0.0
 34
0.0
 15
0.0
 25
0.0
 35
0.0
146
0.0
 13
0.0
 23
0.0
 33
0.0
 16
0.0
 26
0.0
 36
0.0
 17
0.0
 27
0.0
 37
0.0
 76
     0
330
A
331
0
345
0
346
0
  0
LAYOUT
  5
21
102
{ACAD_REACTORS
330
1E
102
}
100
AcDbPlotSettings
  1

  2

  4

  6

 40
0.0
 41
0.0
 42
0.0
 43
0.0
 44
0.0
 45
0.0
 46
0.0
 47
0.0
 48
0.0
 49
0.0
140
0.0
141
0.0
142
1.0
143
1.0
 70
     0
 72
     0
 73
     0
 74
     0
  7

 75
     0
147
1.0
148
0.0
149
0.0
100
AcDbLayout
  1
Layout1
 70
     0
 71
     2
 10
0.0
 20
0.0
 11
0.0
 21
0.0
 12
0.0
 22
0.0
 32
0.0
 14
0.0
 24
0.0
 34
0.0
 15
0.0
 25
0.0
 35
0.0
146
0.0
 13
0.0
 23
0.0
 33
0.0
 16
0.0
 26
0.0
 36
0.0
 17
0.0
 27
0.0
 37
0.0
 76
     0
330
B
331
0
345
0
346
0
  0
DICTIONARY
  5
1E
102
{ACAD_REACTORS
330
19
102
}
100
AcDbDictionary
280
     0
281
     1
  3
Layout1
350
21
  3
Model
350
20
  0
DICTIONARY
  5
22
102
{ACAD_REACTORS
330
19
102
}
100
AcDbDictionary
280
     0
281
     1
  0
WIPEOUTVARIABLES
  5
23
100
AcDbWipeoutVariables
 70
     1
  0
ENDSEC
  0
EOF
