  0
SECTION
  2
HEADER
  9
$ACADVER
  1
AC1015
  9
$ACADMAINTVER
 70
     6
  9
$DWGCODEPAGE
  3
DOS932
  9
$INSBASE
 10
0.0
 20
0.0
 30
0.0
  9
$EXTMIN
 10
-228.279454
 20
-28.523652
 30
0.0
  9
$EXTMAX
 10
520.121784
 20
378.158406
 30
9.906
  9
$LIMMIN
 10
-228.279454
 20
-28.523652
  9
$LIMMAX
 10
520.121784
 20
378.158406
  9
$ORTHOMODE
 70
     0
  9
$REGENMODE
 70
     1
  9
$FILLMODE
 70
     1
  9
$QTEXTMODE
 70
     0
  9
$MIRRTEXT
 70
     1
  9
$LTSCALE
 40
10.0
  9
$ATTMODE
 70
     1
  9
$TEXTSIZE
 40
0.2
  9
$TRACEWID
 40
0.05
  9
$TEXTSTYLE
  7
Standard
  9
$CLAYER
  8
0
  9
$CELTYPE
  6
Continuous
  9
$CECOLOR
 62
   256
  9
$CELTSCALE
 40
1.0
  9
$DISPSILH
 70
     0
  9
$DIMSCALE
 40
1.0
  9
$DIMASZ
 40
1.40208
  9
$DIMEXO
 40
1.40208
  9
$DIMDLI
 40
0.38
  9
$DIMRND
 40
0.0
  9
$DIMDLE
 40
0.0
  9
$DIMEXE
 40
1.05156
  9
$DIMTP
 40
0.0
  9
$DIMTM
 40
0.0
  9
$DIMTXT
 40
3.5052
  9
$DIMCEN
 40
0.09
  9
$DIMTSZ
 40
0.0
  9
$DIMTOL
 70
     0
  9
$DIMLIM
 70
     0
  9
$DIMTIH
 70
     0
  9
$DIMTOH
 70
     0
  9
$DIMSE1
 70
     0
  9
$DIMSE2
 70
     0
  9
$DIMTAD
 70
     1
  9
$DIMZIN
 70
     0
  9
$DIMBLK
  1

  9
$DIMASO
 70
     1
  9
$DIMSHO
 70
     1
  9
$DIMPOST
  1

  9
$DIMAPOST
  1

  9
$DIMALT
 70
     0
  9
$DIMALTD
 70
     2
  9
$DIMALTF
 40
25.4
  9
$DIMLFAC
 40
1.0
  9
$DIMTOFL
 70
     0
  9
$DIMTVP
 40
0.0
  9
$DIMTIX
 70
     0
  9
$DIMSOXD
 70
     0
  9
$DIMSAH
 70
     0
  9
$DIMBLK1
  1

  9
$DIMBLK2
  1

  9
$DIMSTYLE
  2
Standard
  9
$DIMCLRD
 70
     7
  9
$DIMCLRE
 70
     7
  9
$DIMCLRT
 70
     7
  9
$DIMTFAC
 40
0.5
  9
$DIMGAP
 40
1.7526
  9
$DIMJUST
 70
     0
  9
$DIMSD1
 70
     0
  9
$DIMSD2
 70
     0
  9
$DIMTOLJ
 70
     1
  9
$DIMTZIN
 70
     0
  9
$DIMALTZ
 70
     0
  9
$DIMALTTZ
 70
     0
  9
$DIMUPT
 70
     0
  9
$DIMDEC
 70
     2
  9
$DIMTDEC
 70
     4
  9
$DIMALTU
 70
     2
  9
$DIMALTTD
 70
     2
  9
$DIMTXSTY
  7
Standard
  9
$DIMAUNIT
 70
     0
  9
$DIMADEC
 70
     0
  9
$DIMALTRND
 40
0.0
  9
$DIMAZIN
 70
     0
  9
$DIMDSEP
 70
     0
  9
$DIMATFIT
 70
     3
  9
$DIMFRAC
 70
     0
  9
$DIMLDRBLK
  1

  9
$DIMLUNIT
 70
     2
  9
$DIMLWD
 70
     0
  9
$DIMLWE
 70
     0
  9
$DIMTMOVE
 70
     0
  9
$LUNITS
 70
     2
  9
$LUPREC
 70
     4
  9
$SKETCHINC
 40
0.1
  9
$FILLETRAD
 40
0.0
  9
$AUNITS
 70
     0
  9
$AUPREC
 70
     0
  9
$MENU
  1
acad
  9
$ELEVATION
 40
0.0
  9
$PELEVATION
 40
0.0
  9
$THICKNESS
 40
0.0
  9
$LIMCHECK
 70
     0
  9
$CHAMFERA
 40
0.0
  9
$CHAMFERB
 40
0.0
  9
$CHAMFERC
 40
0.0
  9
$CHAMFERD
 40
0.0
  9
$SKPOLY
 70
     0
  9
$TDCREATE
 40
2459786.574641204
  9
$TDUCREATE
 40
0.000000000
  9
$TDUPDATE
 40
2459786.199363426
  9
$TDUUPDATE
 40
0.000000000
  9
$TDINDWG
 40
0.0000000000
  9
$TDUSRTIMER
 40
0.0000000000
  9
$USRTIMER
 70
     1
  9
$ANGBASE
 50
0.0
  9
$ANGDIR
 70
     0
  9
$PDMODE
 70
     0
  9
$PDSIZE
 40
0.0
  9
$PLINEWID
 40
0.0
  9
$SPLFRAME
 70
     0
  9
$SPLINETYPE
 70
     6
  9
$SPLINESEGS
 70
     8
  9
$HANDSEED
  5
C3
  9
$SURFTAB1
 70
     6
  9
$SURFTAB2
 70
     6
  9
$SURFTYPE
 70
     6
  9
$SURFU
 70
     6
  9
$SURFV
 70
     6
  9
$UCSBASE
  2

  9
$UCSNAME
  2

  9
$UCSORG
 10
0.0
 20
0.0
 30
0.0
  9
$UCSXDIR
 10
1.0
 20
0.0
 30
0.0
  9
$UCSYDIR
 10
0.0
 20
1.0
 30
0.0
  9
$UCSORTHOREF
  2

  9
$UCSORTHOVIEW
 70
     0
  9
$UCSORGTOP
 10
0.0
 20
0.0
 30
0.0
  9
$UCSORGBOTTOM
 10
0.0
 20
0.0
 30
0.0
  9
$UCSORGLEFT
 10
0.0
 20
0.0
 30
0.0
  9
$UCSORGRIGHT
 10
0.0
 20
0.0
 30
0.0
  9
$UCSORGFRONT
 10
0.0
 20
0.0
 30
0.0
  9
$UCSORGBACK
 10
0.0
 20
0.0
 30
0.0
  9
$PUCSBASE
  2

  9
$PUCSNAME
  2

  9
$PUCSORG
 10
0.0
 20
0.0
 30
0.0
  9
$PUCSXDIR
 10
1.0
 20
0.0
 30
0.0
  9
$PUCSYDIR
 10
0.0
 20
1.0
 30
0.0
  9
$PUCSORTHOREF
  2

  9
$PUCSORTHOVIEW
 70
     0
  9
$PUCSORGTOP
 10
0.0
 20
0.0
 30
0.0
  9
$PUCSORGBOTTOM
 10
0.0
 20
0.0
 30
0.0
  9
$PUCSORGLEFT
 10
0.0
 20
0.0
 30
0.0
  9
$PUCSORGRIGHT
 10
0.0
 20
0.0
 30
0.0
  9
$PUCSORGFRONT
 10
0.0
 20
0.0
 30
0.0
  9
$PUCSORGBACK
 10
0.0
 20
0.0
 30
0.0
  9
$USERI1
 70
     0
  9
$USERI2
 70
     0
  9
$USERI3
 70
     0
  9
$USERI4
 70
     0
  9
$USERI5
 70
     0
  9
$USERR1
 40
0.0
  9
$USERR2
 40
0.0
  9
$USERR3
 40
0.0
  9
$USERR4
 40
0.0
  9
$USERR5
 40
0.0
  9
$WORLDVIEW
 70
     1
  9
$SHADEDGE
 70
     3
  9
$SHADEDIF
 70
    70
  9
$TILEMODE
 70
     1
  9
$MAXACTVP
 70
    16
  9
$PINSBASE
 10
0.0
 20
0.0
 30
0.0
  9
$PLIMCHECK
 70
     0
  9
$PEXTMIN
 10
1.000000E+20
 20
1.000000E+20
 30
1.000000E+20
  9
$PEXTMAX
 10
-1.000000E+20
 20
-1.000000E+20
 30
-1.000000E+20
  9
$PLIMMIN
 10
0.0
 20
0.0
  9
$PLIMMAX
 10
12.0
 20
9.0
  9
$UNITMODE
 70
     0
  9
$VISRETAIN
 70
     0
  9
$PLINEGEN
 70
     1
  9
$PSLTSCALE
 70
     0
  9
$TREEDEPTH
 70
  3020
  9
$CMLSTYLE
  2
Standard
  9
$CMLJUST
 70
     0
  9
$CMLSCALE
 40
1.0
  9
$PROXYGRAPHICS
 70
     0
  9
$MEASUREMENT
 70
     0
  9
$CELWEIGHT
370
     0
  9
$ENDCAPS
280
     0
  9
$JOINSTYLE
280
     0
  9
$LWDISPLAY
290
     0
  9
$INSUNITS
 70
     0
  9
$HYPERLINKBASE
  1

  9
$STYLESHEET
  1

  9
$XEDIT
290
     1
  9
$CEPSNTYPE
380
     0
  9
$PSTYLEMODE
290
     1
  9
$FINGERPRINTGUID
  2

  9
$VERSIONGUID
  2

  9
$EXTNAMES
290
     1
  9
$PSVPSCALE
 40
0.0
  0
ENDSEC
  0
SECTION
  2
CLASSES
  0
CLASS
  1
LWPOLYLINE
  2
AcDbPolyline
  3
AutoCAD 2000
 90
        0
280
     0
281
     1
  0
CLASS
  1
IMAGE
  2
AcDbRasterImage
  3
ISM
 90
      127
280
     0
281
     1
  0
CLASS
  1
OLE2FRAME
  2
AcDbOle2Frame
  3
AutoCAD 2000
 90
        0
280
     0
281
     1
  0
CLASS
  1
HATCH
  2
AcDbHatch
  3
AutoCAD 2000
 90
        0
280
     0
281
     1
  0
CLASS
  1
DICTIONARYVAR
  2
AcDbDictionaryVar
  3
AutoCAD 2000
 90
        0
280
     0
281
     0
  0
CLASS
  1
RASTERVARIABLES
  2
AcDbRasterVariables
  3
ISM
 90
        0
280
     0
281
     0
  0
CLASS
  1
IMAGEDEF
  2
AcDbRasterImageDef
  3
ISM
 90
        0
280
     0
281
     0
  0
CLASS
  1
IMAGEDEF_REACTOR
  2
AcDbRasterImageDefReactor
  3
ISM
 90
        1
280
     0
281
     0
  0
CLASS
  1
IDBUFFER
  2
AcDbIdBuffer
  3
AutoCAD 2000
 90
        0
280
     0
281
     0
  0
CLASS
  1
SPATIAL_FILTER
  2
AcDbSpatialFilter
  3
AutoCAD 2000
 90
        0
280
     0
281
     0
  0
CLASS
  1
XRECORD
  2
AcDbXrecord
  3
AutoCAD 2000
 90
        0
280
     0
281
     0
  0
CLASS
  1
SORTENTSTABLE
  2
AcDbSortentsTable
  3
AutoCAD 2000
 90
        0
280
     0
281
     0
  0
CLASS
  1
LAYER_INDEX
  2
AcDbLayerIndex
  3
AutoCAD 2000
 90
        0
280
     0
281
     0
  0
CLASS
  1
SPATIAL_INDEX
  2
AcDbSpatialIndex
  3
AutoCAD 2000
 90
        0
280
     0
281
     0
  0
CLASS
  1
OBJECT_PTR
  2
CAseDLPNTableRecord
  3
"ASE-LPNTableRecord"
 90
        1
280
     0
281
     0
  0
CLASS
  1
LAYOUT
  2
AcDbLayout
  3
AutoCAD 2000
 90
        0
280
     0
281
     0
  0
CLASS
  1
PLOTSETTINGS
  2
AcDbPlotSettings
  3
AutoCAD 2000
 90
        0
280
     0
281
     0
  0
CLASS
  1
ACDBDICTIONARYWDFLT
  2
AcDbDictionaryWithDefault
  3
AutoCAD 2000
 90
        0
280
     0
281
     0
  0
CLASS
  1
ACDBPLACEHOLDER
  2
AcDbPlaceHolder
  3
AutoCAD 2000
 90
        0
280
     0
281
     0
  0
CLASS
  1
VBA_PROJECT
  2
AcDbVbaProject
  3
acadvba
 90
        0
280
     0
281
     0
  0
CLASS
  1
WIPEOUT
  2
AcDbWipeout
  3
WipeOut|AutoCAD Express Tool|expresstools@autodesk.com
 90
      127
280
     0
281
     1
  0
CLASS
  1
WIPEOUTVARIABLES
  2
AcDbWipeoutVariables
  3
WipeOut|AutoCAD Express Tool|expresstools@autodesk.com
 90
        0
280
     0
281
     0
  0
CLASS
  1
RTEXT
  2
RText
  3
RText|AutoCAD Express Tool|expresstools@autodesk.com
 90
        0
280
     0
281
     1
  0
CLASS
  1
ARCALIGNEDTEXT
  2
AcDbArcAlignedText
  3
ATEXT|AutoCAD Express Tool|expresstools@autodesk.com
 90
        0
280
     0
281
     1
  0
ENDSEC
  0
SECTION
  2
TABLES
  0
TABLE
  2
VPORT
  5
7
100
AcDbSymbolTable
 70
     1
  0
VPORT
  5
15
100
AcDbSymbolTableRecord
100
AcDbViewportTableRecord
  2
*ACTIVE
 70
     0
 10
0.0
 20
0.0
 11
1.0
 21
1.0
 12
6.591288
 22
4.579184
 13
0.0
 23
0.0
 14
1.0
 24
1.0
 15
0.0
 25
0.0
 16
0.0
 26
0.0
 36
1.0
 17
0.0
 27
0.0
 37
0.0
 40
9.158369
 41
0.688564
 42
50.0
 43
0.0
 44
0.0
 50
0.0
 51
0.0
 71
     0
 72
   100
 73
     1
 74
     1
 75
     0
 76
     0
 77
     0
 78
     0
281
     0
 65
     0
110
0.0
120
0.0
130
0.0
111
1.0
121
0.0
131
0.0
112
0.0
122
1.0
132
0.0
345
0
346
0
 79
     0
146
0.0
  0
ENDTAB
  0
TABLE
  2
LTYPE
  5
4
100
AcDbSymbolTable
 70
     3
  0
LTYPE
  5
11
100
AcDbSymbolTableRecord
100
AcDbLinetypeTableRecord
  2
ByBlock
 70
    64
  3

 72
    65
 73
     0
 40
0.0
  0
LTYPE
  5
12
100
AcDbSymbolTableRecord
100
AcDbLinetypeTableRecord
  2
ByLayer
 70
    64
  3

 72
    65
 73
     0
 40
0.0
  0
LTYPE
  5
13
100
AcDbSymbolTableRecord
100
AcDbLinetypeTableRecord
  2
Continuous
 70
    64
  3
Solid line
 72
    65
 73
     0
 40
0.0
  0
ENDTAB
  0
TABLE
  2
LAYER
  5
2
100
AcDbSymbolTable
 70
     1
  0
LAYER
  5
14
100
AcDbSymbolTableRecord
100
AcDbLayerTableRecord
  2
0
 70
     0
 62
     7
  6
Continuous
290
     1
370
    -3
390
1D
  0
ENDTAB
  0
TABLE
  2
STYLE
  5
3
100
AcDbSymbolTable
 70
     1
  0
STYLE
  5
17
100
AcDbSymbolTableRecord
100
AcDbTextStyleTableRecord
  2
Standard
 70
     0
 40
0.0
 41
1.0
 50
0.0
 71
     0
 42
0.0
  3
FG教科書体NT-M
  4

1001
ACAD
1000
FG教科書体NT-M
1071
        0
  0
ENDTAB
  0
TABLE
  2
VIEW
  5
5
100
AcDbSymbolTable
 70
     0
  0
ENDTAB
  0
TABLE
  2
UCS
  5
6
100
AcDbSymbolTable
 70
     0
  0
ENDTAB
  0
TABLE
  2
APPID
  5
8
100
AcDbSymbolTable
 70
     2
  0
APPID
  5
16
100
AcDbSymbolTableRecord
100
AcDbRegAppTableRecord
  2
ACAD
 70
     0
  0
APPID
  5
26
100
AcDbSymbolTableRecord
100
AcDbRegAppTableRecord
  2
TOPsolid_Design
 70
     0
  0
ENDTAB
  0
TABLE
  2
DIMSTYLE
  5
9
100
AcDbSymbolTable
 70
     1
100
AcDbDimStyleTable
 71
     0
  0
DIMSTYLE
105
18
100
AcDbSymbolTableRecord
100
AcDbDimStyleTableRecord
  2
Standard
 70
     0
  3

  4

 40
1.0
 41
1.40208
 42
1.40208
 43
0.38
 44
1.05156
 45
0.0
 46
0.0
 47
0.0
 48
0.0
 71
     0
 72
     0
 73
     0
 74
     0
 75
     0
 76
     0
 77
     1
 78
     0
 79
     0
140
3.5052
141
0.09
142
0.0
143
25.4
144
1.0
145
0.0
146
0.5
147
1.7526
148
0.0
170
     0
171
     2
172
     0
173
     0
174
     0
175
     0
176
     7
177
     7
178
     7
179
     0
271
     2
272
     4
273
     2
274
     2
275
     0
276
     0
277
     2
278
    46
279
     0
280
     0
281
     0
282
     0
283
     1
284
     0
285
     0
286
     0
288
     0
289
     3
340
17
341
0
342
0
343
0
344
0
371
    -2
372
    -2
  0
ENDTAB
  0
TABLE
  2
BLOCK_RECORD
  5
1
100
AcDbSymbolTable
 70
     0
  0
BLOCK_RECORD
  5
A
100
AcDbSymbolTableRecord
100
AcDbBlockTableRecord
  2
*MODEL_SPACE
340
20
  0
BLOCK_RECORD
  5
B
100
AcDbSymbolTableRecord
100
AcDbBlockTableRecord
  2
*PAPER_SPACE
340
21
  0
ENDTAB
  0
ENDSEC
  0
SECTION
  2
BLOCKS
  0
BLOCK
  5
D
100
AcDbEntity
  8
0
390
0
100
AcDbBlockBegin
  2
*MODEL_SPACE
 70
     0
 10
0.0
 20
0.0
 30
0.0
  3
*MODEL_SPACE
  1

  0
ENDBLK
  5
E
100
AcDbEntity
  8
0
390
0
100
AcDbBlockEnd
  0
BLOCK
  5
F
100
AcDbEntity
 67
     1
  8
0
390
0
100
AcDbBlockBegin
  2
*PAPER_SPACE
 70
     0
 10
0.0
 20
0.0
 30
0.0
  3
*PAPER_SPACE
  1

  0
ENDBLK
  5
10
100
AcDbEntity
 67
     1
  8
0
390
0
100
AcDbBlockEnd
  0
ENDSEC
  0
SECTION
  2
ENTITIES
  0
LINE
  5
27
100
AcDbEntity
  8
0
390
0
  6
Continuous
 62
     7
100
AcDbLine
 10
31.5
 20
25.524109
 30
0.0
 11
-28.552357
 21
24.475891
 31
0.0
  0
ELLIPSE
  5
28
100
AcDbEntity
  8
0
390
0
  6
Continuous
 62
     7
100
AcDbEllipse
 10
-28.5
 20
24.475891
 30
0.0
 11
0.0523572193118493
 21
-2.9995430854691807
 31
0.0
210
0.0
220
0.0
230
1.0
 40
0.01745
 41
3.1415926535897603
 42
4.712084393889528
  0
LINE
  5
29
100
AcDbEntity
  8
0
390
0
  6
Continuous
 62
     7
100
AcDbLine
 10
-28.552357
 20
27.475435
 30
0.0
 11
31.5
 21
28.523652
 31
0.0
  0
LINE
  5
2A
100
AcDbEntity
  8
0
390
0
  6
Continuous
 62
     7
100
AcDbLine
 10
31.5
 20
28.523652
 30
0.0
 11
31.5
 21
25.524109
 31
0.0
  0
LINE
  5
2B
100
AcDbEntity
  8
0
390
0
  6
Continuous
 62
     7
100
AcDbLine
 10
31.5
 20
-28.523652
 30
0.0
 11
-28.552357
 21
-27.475434
 31
0.0
  0
ELLIPSE
  5
2C
100
AcDbEntity
  8
0
390
0
  6
Continuous
 62
     7
100
AcDbEllipse
 10
-28.5
 20
-24.475891
 30
0.0
 11
-0.0523572193118493
 21
-2.9995430854691807
 31
0.0
210
0.0
220
0.0
230
1.0
 40
0.01745
 41
4.7126935668798522
 42
6.2831853071795862
  0
LINE
  5
2D
100
AcDbEntity
  8
0
390
0
  6
Continuous
 62
     7
100
AcDbLine
 10
-28.552357
 20
-24.475891
 30
0.0
 11
31.5
 21
-25.524109
 31
0.0
  0
LINE
  5
2E
100
AcDbEntity
  8
0
390
0
  6
Continuous
 62
     7
100
AcDbLine
 10
31.5
 20
-25.524109
 30
0.0
 11
31.5
 21
-28.523652
 31
0.0
  0
LINE
  5
2F
100
AcDbEntity
  8
0
390
0
  6
Continuous
 62
     7
100
AcDbLine
 10
31.5
 20
-25.524109
 30
0.0
 11
31.5
 21
25.524109
 31
0.0
  0
LINE
  5
30
100
AcDbEntity
  8
0
390
0
  6
Continuous
 62
     7
100
AcDbLine
 10
-28.552357
 20
24.475891
 30
0.0
 11
-28.552357
 21
-24.475891
 31
0.0
  0
LINE
  5
31
100
AcDbEntity
  8
0
390
0
  6
Continuous
 62
     7
100
AcDbLine
 10
-31.5
 20
-24.475891
 30
0.0
 11
-31.5
 21
24.475891
 31
0.0
  0
LINE
  5
32
100
AcDbEntity
  8
0
390
0
  6
Continuous
 62
     7
100
AcDbLine
 10
-31.5
 20
24.475891
 30
0.0
 11
-28.552357
 21
24.475891
 31
0.0
  0
LINE
  5
33
100
AcDbEntity
  8
0
390
0
  6
Continuous
 62
     7
100
AcDbLine
 10
-31.5
 20
-24.475891
 30
0.0
 11
-28.552357
 21
-24.475891
 31
0.0
  0
ARC
  5
34
100
AcDbEntity
  8
0
390
0
  6
Continuous
 62
     7
100
AcDbCircle
 10
-28.5
 20
-24.475891
 30
0.0
 40
3.0
210
0.0
220
0.0
230
1.0
100
AcDbArc
 50
180.0
 51
269.0
  0
ARC
  5
35
100
AcDbEntity
  8
0
390
0
  6
Continuous
 62
     7
100
AcDbCircle
 10
-28.5
 20
24.475891
 30
0.0
 40
3.0
210
0.0
220
0.0
230
1.0
100
AcDbArc
 50
91.0
 51
180.0
  0
LINE
  5
36
100
AcDbEntity
  8
0
390
0
  6
Continuous
 62
     7
100
AcDbLine
 10
-32.0
 20
-3.090909
 30
0.0
 11
-32.0
 21
-12.636363
 31
0.0
  0
LINE
  5
37
100
AcDbEntity
  8
0
390
0
  6
Continuous
 62
     7
100
AcDbLine
 10
-31.9995
 20
6.331667
 30
0.0
 11
-31.5
 21
6.331667
 31
0.0
  0
LINE
  5
38
100
AcDbEntity
  8
0
390
0
  6
Continuous
 62
     7
100
AcDbLine
 10
-31.9995
 20
6.331667
 30
0.0
 11
-31.9995
 21
12.997679
 31
0.0
  0
LINE
  5
39
100
AcDbEntity
  8
0
390
0
  6
Continuous
 62
     7
100
AcDbLine
 10
-31.9995
 20
12.997679
 30
0.0
 11
-31.5
 21
12.997679
 31
0.0
  0
LINE
  5
3A
100
AcDbEntity
  8
0
390
0
  6
Continuous
 62
     7
100
AcDbLine
 10
-31.9995
 20
2.994999
 30
0.0
 11
-31.5
 21
2.994999
 31
0.0
  0
LINE
  5
3B
100
AcDbEntity
  8
0
390
0
  6
Continuous
 62
     7
100
AcDbLine
 10
-31.9995
 20
2.994999
 30
0.0
 11
-31.9995
 21
6.331667
 31
0.0
  0
LINE
  5
3C
100
AcDbEntity
  8
0
390
0
  6
Continuous
 62
     7
100
AcDbLine
 10
-32.0
 20
-12.954545
 30
0.0
 11
-31.5
 21
-12.954545
 31
0.0
  0
LINE
  5
3D
100
AcDbEntity
  8
0
390
0
  6
Continuous
 62
     7
100
AcDbLine
 10
-32.0
 20
-12.736363
 30
0.0
 11
-32.0
 21
-12.954545
 31
0.0
  0
LINE
  5
3E
100
AcDbEntity
  8
0
390
0
  6
Continuous
 62
     7
100
AcDbLine
 10
-32.0
 20
-3.045454
 30
0.0
 11
-31.5
 21
-3.045454
 31
0.0
  0
LINE
  5
3F
100
AcDbEntity
  8
0
390
0
  6
Continuous
 62
     7
100
AcDbLine
 10
-32.0
 20
-12.636363
 30
0.0
 11
-31.5
 21
-12.636363
 31
0.0
  0
LINE
  5
40
100
AcDbEntity
  8
0
390
0
  6
Continuous
 62
     7
100
AcDbLine
 10
-31.5
 20
-3.090909
 30
0.0
 11
-32.0
 21
-3.090909
 31
0.0
  0
LINE
  5
41
100
AcDbEntity
  8
0
390
0
  6
Continuous
 62
     7
100
AcDbLine
 10
-32.0
 20
-12.650343
 30
0.0
 11
-31.5
 21
-12.650343
 31
0.0
  0
LINE
  5
42
100
AcDbEntity
  8
0
390
0
  6
Continuous
 62
     7
100
AcDbLine
 10
195.514298
 20
-25.488741
 30
0.0
 11
195.514298
 21
25.488742
 31
0.0
  0
LINE
  5
43
100
AcDbEntity
  8
0
390
0
  6
Continuous
 62
     7
100
AcDbLine
 10
195.514298
 20
25.488742
 30
0.0
 11
94.536814
 21
25.488742
 31
0.0
  0
LINE
  5
44
100
AcDbEntity
  8
0
390
0
  6
Continuous
 62
     7
100
AcDbLine
 10
94.536814
 20
25.488742
 30
0.0
 11
94.536814
 21
-25.488741
 31
0.0
  0
LINE
  5
45
100
AcDbEntity
  8
0
390
0
  6
Continuous
 62
     7
100
AcDbLine
 10
94.536814
 20
-25.488741
 30
0.0
 11
195.514298
 21
-25.488741
 31
0.0
  0
ELLIPSE
  5
46
100
AcDbEntity
  8
0
390
0
  6
Continuous
 62
     7
100
AcDbEllipse
 10
94.502361
 20
-25.523195
 30
0.0
 11
-2.1219665675087374
 21
-2.1219665675087374
 31
0.0
210
0.0
220
0.0
230
0.9999999999999999
 40
0.999695
 41
5.4979394370297188
 42
7.0684311773294528
  0
LINE
  5
47
100
AcDbEntity
  8
0
390
0
  6
Continuous
 62
     7
100
AcDbLine
 10
91.501904
 20
-25.524109
 30
0.0
 11
91.501904
 21
25.524109
 31
0.0
  0
LINE
  5
48
100
AcDbEntity
  8
0
390
0
  6
Continuous
 62
     7
100
AcDbLine
 10
94.501447
 20
28.523652
 30
0.0
 11
195.549665
 21
28.523652
 31
0.0
  0
ELLIPSE
  5
49
100
AcDbEntity
  8
0
390
0
  6
Continuous
 62
     7
100
AcDbEllipse
 10
195.548751
 20
25.523195
 30
0.0
 11
2.1219665675087374
 21
2.1219665675087374
 31
0.0
210
0.0
220
0.0
230
0.9999999999999999
 40
0.999695
 41
5.4979394370297188
 42
7.0684311773294528
  0
LINE
  5
4A
100
AcDbEntity
  8
0
390
0
  6
Continuous
 62
     7
100
AcDbLine
 10
198.549208
 20
25.524109
 30
0.0
 11
198.549208
 21
-25.524109
 31
0.0
  0
ELLIPSE
  5
4B
100
AcDbEntity
  8
0
390
0
  6
Continuous
 62
     7
100
AcDbEllipse
 10
195.548751
 20
-25.523195
 30
0.0
 11
2.1219665675087374
 21
-2.1219665675087374
 31
0.0
210
0.0
220
0.0
230
0.9999999999999999
 40
0.999695
 41
5.4979394370297197
 42
7.0684311773294528
  0
LINE
  5
4C
100
AcDbEntity
  8
0
390
0
  6
Continuous
 62
     7
100
AcDbLine
 10
195.549665
 20
-28.523652
 30
0.0
 11
94.501447
 21
-28.523652
 31
0.0
  0
ELLIPSE
  5
4D
100
AcDbEntity
  8
0
390
0
  6
Continuous
 62
     7
100
AcDbEllipse
 10
94.502361
 20
25.523195
 30
0.0
 11
-2.1219665675087374
 21
2.1219665675087374
 31
0.0
210
0.0
220
0.0
230
0.9999999999999999
 40
0.999695
 41
5.4979394370297197
 42
7.0684311773294555
  0
LINE
  5
4E
100
AcDbEntity
  8
0
390
0
  6
Continuous
 62
     7
100
AcDbLine
 10
95.549208
 20
-24.476348
 30
0.0
 11
94.536814
 21
-25.488741
 31
0.0
  0
LINE
  5
4F
100
AcDbEntity
  8
0
390
0
  6
Continuous
 62
     7
100
AcDbLine
 10
194.501904
 20
-24.476348
 30
0.0
 11
95.549208
 21
-24.476348
 31
0.0
  0
LINE
  5
50
100
AcDbEntity
  8
0
390
0
  6
Continuous
 62
     7
100
AcDbLine
 10
194.501904
 20
-24.476348
 30
0.0
 11
195.514298
 21
-25.488741
 31
0.0
  0
LINE
  5
51
100
AcDbEntity
  8
0
390
0
  6
Continuous
 62
     7
100
AcDbLine
 10
95.549208
 20
24.476348
 30
0.0
 11
94.536814
 21
25.488742
 31
0.0
  0
LINE
  5
52
100
AcDbEntity
  8
0
390
0
  6
Continuous
 62
     7
100
AcDbLine
 10
95.549208
 20
-24.476348
 30
0.0
 11
95.549208
 21
24.476348
 31
0.0
  0
LINE
  5
53
100
AcDbEntity
  8
0
390
0
  6
Continuous
 62
     7
100
AcDbLine
 10
194.501904
 20
24.476348
 30
0.0
 11
195.514298
 21
25.488742
 31
0.0
  0
LINE
  5
54
100
AcDbEntity
  8
0
390
0
  6
Continuous
 62
     7
100
AcDbLine
 10
95.549208
 20
24.476348
 30
0.0
 11
194.501904
 21
24.476348
 31
0.0
  0
LINE
  5
55
100
AcDbEntity
  8
0
390
0
  6
Continuous
 62
     7
100
AcDbLine
 10
194.501904
 20
24.476348
 30
0.0
 11
194.501904
 21
-24.476348
 31
0.0
  0
LINE
  5
56
100
AcDbEntity
  8
0
390
0
  6
Continuous
 62
     7
100
AcDbLine
 10
-132.53468
 20
-12.045454
 30
0.0
 11
-135.625589
 21
-8.954545
 31
0.0
  0
LINE
  5
57
100
AcDbEntity
  8
0
390
0
  6
Continuous
 62
     7
100
AcDbLine
 10
-135.625589
 20
-8.954545
 30
0.0
 11
-138.761952
 21
-12.045454
 31
0.0
  0
LINE
  5
58
100
AcDbEntity
  8
0
390
0
  6
Continuous
 62
     7
100
AcDbLine
 10
-138.761952
 20
-12.045454
 30
0.0
 11
-139.716498
 21
-11.090909
 31
0.0
  0
LINE
  5
59
100
AcDbEntity
  8
0
390
0
  6
Continuous
 62
     7
100
AcDbLine
 10
-139.716498
 20
-11.090909
 30
0.0
 11
-136.625589
 21
-8.0
 31
0.0
  0
LINE
  5
5A
100
AcDbEntity
  8
0
390
0
  6
Continuous
 62
     7
100
AcDbLine
 10
-136.625589
 20
-8.0
 30
0.0
 11
-139.716498
 21
-4.863636
 31
0.0
  0
LINE
  5
5B
100
AcDbEntity
  8
0
390
0
  6
Continuous
 62
     7
100
AcDbLine
 10
-139.716498
 20
-4.863636
 30
0.0
 11
-138.807407
 21
-3.954545
 31
0.0
  0
LINE
  5
5C
100
AcDbEntity
  8
0
390
0
  6
Continuous
 62
     7
100
AcDbLine
 10
-138.807407
 20
-3.954545
 30
0.0
 11
-135.625589
 21
-7.090909
 31
0.0
  0
LINE
  5
5D
100
AcDbEntity
  8
0
390
0
  6
Continuous
 62
     7
100
AcDbLine
 10
-135.625589
 20
-7.090909
 30
0.0
 11
-132.489225
 21
-3.954545
 31
0.0
  0
LINE
  5
5E
100
AcDbEntity
  8
0
390
0
  6
Continuous
 62
     7
100
AcDbLine
 10
-132.489225
 20
-3.954545
 30
0.0
 11
-131.580134
 21
-4.863636
 31
0.0
  0
LINE
  5
5F
100
AcDbEntity
  8
0
390
0
  6
Continuous
 62
     7
100
AcDbLine
 10
-131.580134
 20
-4.863636
 30
0.0
 11
-134.671043
 21
-8.0
 31
0.0
  0
LINE
  5
60
100
AcDbEntity
  8
0
390
0
  6
Continuous
 62
     7
100
AcDbLine
 10
-134.671043
 20
-8.0
 30
0.0
 11
-131.580134
 21
-11.090909
 31
0.0
  0
LINE
  5
61
100
AcDbEntity
  8
0
390
0
  6
Continuous
 62
     7
100
AcDbLine
 10
-131.580134
 20
-11.090909
 30
0.0
 11
-132.53468
 21
-12.045454
 31
0.0
  0
LINE
  5
62
100
AcDbEntity
  8
0
390
0
  6
Continuous
 62
     7
100
AcDbLine
 10
-128.989225
 20
-9.727272
 30
0.0
 11
-127.671043
 21
-9.727272
 31
0.0
  0
SPLINE
  5
63
100
AcDbEntity
  8
0
390
0
  6
Continuous
 62
     7
100
AcDbSpline
210
0.0
220
0.0
230
1.0
 70
     0
 71
     2
 72
    16
 73
    13
 74
     0
 42
0.000001
 43
0.000001
 40
2.0
 40
2.0
 40
2.0
 40
3.0
 40
3.0
 40
4.0
 40
4.0
 40
5.0
 40
5.0
 40
6.0
 40
6.0
 40
7.0
 40
7.0
 40
8.0
 40
8.0
 40
8.0
 10
-127.67104340886296
 20
-9.7272723665929881
 30
0.0
 10
-127.53467977249936
 20
-10.454545093865676
 30
0.0
 10
-127.02604713901324
 20
-10.852605415724359
 30
0.0
 10
-126.48922522704476
 20
-11.27272691204756
 30
0.0
 10
-125.93918317490014
 20
-11.10604750230676
 30
0.0
 10
-124.98922522704476
 20
-10.81818145750213
 30
0.0
 10
-124.8336163076623
 20
-9.6844593305724374
 30
0.0
 10
-124.67104340886296
 20
-8.4999996393202988
 30
0.0
 10
-125.48922522704476
 20
-7.8636360029566426
 30
0.0
 10
-125.89831613613569
 20
-7.5454541847748686
 30
0.0
 10
-126.44377068159027
 20
-7.636363275683955
 30
0.0
 10
-126.98922522704476
 20
-7.7272723665929854
 30
0.0
 10
-127.3528615906811
 20
-8.1818178211384698
 30
0.0
  0
LINE
  5
64
100
AcDbEntity
  8
0
390
0
  6
Continuous
 62
     7
100
AcDbLine
 10
-127.352862
 20
-8.181818
 30
0.0
 11
-128.761952
 21
-8.181818
 31
0.0
  0
LINE
  5
65
100
AcDbEntity
  8
0
390
0
  6
Continuous
 62
     7
100
AcDbLine
 10
-128.761952
 20
-8.181818
 30
0.0
 11
-128.03468
 21
-3.181818
 31
0.0
  0
LINE
  5
66
100
AcDbEntity
  8
0
390
0
  6
Continuous
 62
     7
100
AcDbLine
 10
-128.03468
 20
-3.181818
 30
0.0
 11
-123.807407
 21
-3.181818
 31
0.0
  0
LINE
  5
67
100
AcDbEntity
  8
0
390
0
  6
Continuous
 62
     7
100
AcDbLine
 10
-123.807407
 20
-3.181818
 30
0.0
 11
-123.807407
 21
-4.727272
 31
0.0
  0
LINE
  5
68
100
AcDbEntity
  8
0
390
0
  6
Continuous
 62
     7
100
AcDbLine
 10
-123.807407
 20
-4.727272
 30
0.0
 11
-126.943771
 21
-4.727272
 31
0.0
  0
LINE
  5
69
100
AcDbEntity
  8
0
390
0
  6
Continuous
 62
     7
100
AcDbLine
 10
-126.943771
 20
-4.727272
 30
0.0
 11
-127.261952
 21
-6.590909
 31
0.0
  0
SPLINE
  5
6A
100
AcDbEntity
  8
0
390
0
  6
Continuous
 62
     7
100
AcDbSpline
210
0.0
220
0.0
230
1.0
 70
     0
 71
     2
 72
    16
 73
    13
 74
     0
 42
0.000001
 43
0.000001
 40
14.0
 40
14.0
 40
14.0
 40
15.0
 40
15.0
 40
16.0
 40
16.0
 40
17.0
 40
17.0
 40
18.0
 40
18.0
 40
19.0
 40
19.0
 40
20.0
 40
20.0
 40
20.0
 10
-127.26195249977204
 20
-6.5909087302293834
 30
0.0
 10
-125.85286159068113
 20
-5.7272723665929837
 30
0.0
 10
-124.67289633300888
 20
-6.5481177632346066
 30
0.0
 10
-123.76195249977204
 20
-7.1818178211384698
 30
0.0
 10
-123.48922522704478
 20
-8.4999996393202988
 30
0.0
 10
-123.21649795431752
 20
-9.8181814575021278
 30
0.0
 10
-123.7398740697937
 20
-10.964624377116705
 30
0.0
 10
-124.17104340886296
 20
-11.909090548411216
 30
0.0
 10
-125.03917267843731
 20
-12.354886659814268
 30
0.0
 10
-125.85286159068113
 20
-12.77272691204756
 30
0.0
 10
-126.71824620606579
 20
-12.599649988970674
 30
0.0
 10
-127.67104340886296
 20
-12.409090548411218
 30
0.0
 10
-128.27716873041808
 20
-11.694728562292699
 30
0.0
  0
ARC
  5
6B
100
AcDbEntity
  8
0
390
0
  6
Continuous
 62
     7
100
AcDbCircle
 10
-125.858811
 20
-9.706902
 30
0.0
 40
3.13048
210
0.0
220
0.0
230
1.0
100
AcDbArc
 50
180.372829
 51
219.419307
  0
SPLINE
  5
6C
100
AcDbEntity
  8
0
390
0
  6
Continuous
 62
     7
100
AcDbSpline
210
0.0
220
0.0
230
1.0
 70
     0
 71
     2
 72
    20
 73
    17
 74
     0
 42
0.000001
 43
0.000001
 40
-1.0
 40
0.0
 40
0.0
 40
1.0
 40
1.0
 40
2.0
 40
2.0
 40
3.0
 40
3.0
 40
4.0
 40
4.0
 40
5.0
 40
5.0
 40
6.0
 40
6.0
 40
7.0
 40
7.0
 40
8.0
 40
8.0
 40
9.0
 10
-120.17104340886294
 20
-9.9545450938657289
 30
0.0
 10
-119.76195249977201
 20
-11.045454184774872
 30
0.0
 10
-118.98857639134438
 20
-11.178032946219608
 30
0.0
 10
-118.17104340886294
 20
-11.31818145750213
 30
0.0
 10
-117.68684414403604
 20
-10.400751271514297
 30
0.0
 10
-117.3074070452266
 20
-9.6818178211384716
 30
0.0
 10
-117.22391761520254
 20
-8.4086040132712032
 30
0.0
 10
-117.12558886340842
 20
-6.9090905484112124
 30
0.0
 10
-117.49574434435631
 20
-5.8203979573880353
 30
0.0
 10
-117.89831613613566
 20
-4.6363632756839523
 30
0.0
 10
-118.62377068159022
 20
-4.5327269120475355
 30
0.0
 10
-119.48922522704477
 20
-4.4090905484112097
 30
0.0
 10
-119.93398047180001
 20
-5.1874122267329126
 30
0.0
 10
-120.39831613613569
 20
-5.9999996393202419
 30
0.0
 10
-120.48203918849113
 20
-7.3186377139182195
 30
0.0
 10
-120.58013431795386
 20
-8.8636360029566426
 30
0.0
 10
-120.17104340886294
 20
-9.9545450938657289
 30
0.0
  0
SPLINE
  5
6D
100
AcDbEntity
  8
0
390
0
  6
Continuous
 62
     7
100
AcDbSpline
210
0.0
220
0.0
230
1.0
 70
     0
 71
     2
 72
    20
 73
    17
 74
     0
 42
0.000001
 43
0.000001
 40
-1.0
 40
0.0
 40
0.0
 40
1.0
 40
1.0
 40
2.0
 40
2.0
 40
3.0
 40
3.0
 40
4.0
 40
4.0
 40
5.0
 40
5.0
 40
6.0
 40
6.0
 40
7.0
 40
7.0
 40
8.0
 40
8.0
 40
9.0
 10
-120.99259958194756
 20
-11.502580028363575
 30
0.0
 10
-121.89831613613569
 20
-10.31818145750213
 30
0.0
 10
-121.96150167762541
 20
-8.3173059769941489
 30
0.0
 10
-122.03467977249935
 20
-5.9999996393202419
 30
0.0
 10
-121.09239172346972
 20
-4.4923387608729044
 30
0.0
 10
-120.21649795431752
 20
-3.0909087302293803
 30
0.0
 10
-118.8074070452266
 20
-3.0909087302293803
 30
0.0
 10
-117.48922522704477
 20
-3.0909087302293803
 30
0.0
 10
-116.68577068159023
 20
-4.2514541847748504
 30
0.0
 10
-115.85286159068117
 20
-5.4545450938657813
 30
0.0
 10
-115.76871965143465
 20
-7.4529161509692692
 30
0.0
 10
-115.67104340886294
 20
-9.7727269120475579
 30
0.0
 10
-116.57387500349783
 20
-11.23114718030388
 30
0.0
 10
-117.44377068159027
 20
-12.636363275683959
 30
0.0
 10
-118.8074070452266
 20
-12.636363275683959
 30
0.0
 10
-120.12558886340844
 20
-12.636363275683959
 30
0.0
 10
-120.99259958194756
 20
-11.502580028363575
 30
0.0
  0
SPLINE
  5
6E
100
AcDbEntity
  8
0
390
0
  6
Continuous
 62
     7
100
AcDbSpline
210
0.0
220
0.0
230
1.0
 70
     0
 71
     2
 72
    20
 73
    17
 74
     0
 42
0.000001
 43
0.000001
 40
-1.0
 40
0.0
 40
0.0
 40
1.0
 40
1.0
 40
2.0
 40
2.0
 40
3.0
 40
3.0
 40
4.0
 40
4.0
 40
5.0
 40
5.0
 40
6.0
 40
6.0
 40
7.0
 40
7.0
 40
8.0
 40
8.0
 40
9.0
 10
-146.44377068159022
 20
-9.9545450938657289
 30
0.0
 10
-146.03467977249932
 20
-11.045454184774872
 30
0.0
 10
-145.26130366407168
 20
-11.178032946219608
 30
0.0
 10
-144.44377068159022
 20
-11.31818145750213
 30
0.0
 10
-143.95957141676334
 20
-10.400751271514297
 30
0.0
 10
-143.58013431795388
 20
-9.6818178211384716
 30
0.0
 10
-143.49664488792979
 20
-8.4086040132712032
 30
0.0
 10
-143.39831613613569
 20
-6.9090905484112124
 30
0.0
 10
-143.76847161708358
 20
-5.8203979573880353
 30
0.0
 10
-144.17104340886297
 20
-4.6363632756839523
 30
0.0
 10
-144.89649795431751
 20
-4.5327269120475355
 30
0.0
 10
-145.76195249977206
 20
-4.4090905484112097
 30
0.0
 10
-146.20670774452728
 20
-5.1874122267329126
 30
0.0
 10
-146.67104340886297
 20
-5.9999996393202419
 30
0.0
 10
-146.75476646121837
 20
-7.3186377139182195
 30
0.0
 10
-146.85286159068116
 20
-8.8636360029566426
 30
0.0
 10
-146.44377068159022
 20
-9.9545450938657289
 30
0.0
  0
SPLINE
  5
6F
100
AcDbEntity
  8
0
390
0
  6
Continuous
 62
     7
100
AcDbSpline
210
0.0
220
0.0
230
1.0
 70
     0
 71
     2
 72
    20
 73
    17
 74
     0
 42
0.000001
 43
0.000001
 40
-1.0
 40
0.0
 40
0.0
 40
1.0
 40
1.0
 40
2.0
 40
2.0
 40
3.0
 40
3.0
 40
4.0
 40
4.0
 40
5.0
 40
5.0
 40
6.0
 40
6.0
 40
7.0
 40
7.0
 40
8.0
 40
8.0
 40
9.0
 10
-147.26532685467481
 20
-11.502580028363575
 30
0.0
 10
-148.17104340886297
 20
-10.31818145750213
 30
0.0
 10
-148.23422895035267
 20
-8.3173059769941489
 30
0.0
 10
-148.30740704522657
 20
-5.9999996393202419
 30
0.0
 10
-147.36511899619694
 20
-4.4923387608729044
 30
0.0
 10
-146.48922522704478
 20
-3.0909087302293803
 30
0.0
 10
-145.08013431795388
 20
-3.0909087302293803
 30
0.0
 10
-143.76195249977206
 20
-3.0909087302293803
 30
0.0
 10
-142.95849795431749
 20
-4.2514541847748504
 30
0.0
 10
-142.12558886340844
 20
-5.4545450938657813
 30
0.0
 10
-142.04144692416196
 20
-7.4529161509692692
 30
0.0
 10
-141.94377068159022
 20
-9.7727269120475579
 30
0.0
 10
-142.84660227622513
 20
-11.23114718030388
 30
0.0
 10
-143.7164979543175
 20
-12.636363275683959
 30
0.0
 10
-145.08013431795388
 20
-12.636363275683959
 30
0.0
 10
-146.39831613613569
 20
-12.636363275683959
 30
0.0
 10
-147.26532685467481
 20
-11.502580028363575
 30
0.0
  0
LINE
  5
70
100
AcDbEntity
  8
0
390
0
  6
Continuous
 62
     7
100
AcDbLine
 10
-165.671043
 20
-11.590909
 30
0.0
 11
-165.671043
 21
-4.363636
 31
0.0
  0
LINE
  5
71
100
AcDbEntity
  8
0
390
0
  6
Continuous
 62
     7
100
AcDbLine
 10
-174.261952
 20
-3.045454
 30
0.0
 11
-164.307407
 21
-3.045454
 31
0.0
  0
LINE
  5
72
100
AcDbEntity
  8
0
390
0
  6
Continuous
 62
     7
100
AcDbLine
 10
-164.307407
 20
-3.045454
 30
0.0
 11
-164.307407
 21
-12.954545
 31
0.0
  0
LINE
  5
73
100
AcDbEntity
  8
0
390
0
  6
Continuous
 62
     7
100
AcDbLine
 10
-164.307407
 20
-12.954545
 30
0.0
 11
-174.261952
 21
-12.954545
 31
0.0
  0
LINE
  5
74
100
AcDbEntity
  8
0
390
0
  6
Continuous
 62
     7
100
AcDbLine
 10
-174.261952
 20
-12.954545
 30
0.0
 11
-174.261952
 21
-3.045454
 31
0.0
  0
LINE
  5
75
100
AcDbEntity
  8
0
390
0
  6
Continuous
 62
     7
100
AcDbLine
 10
-165.671043
 20
-4.363636
 30
0.0
 11
-172.898316
 21
-4.363636
 31
0.0
  0
LINE
  5
76
100
AcDbEntity
  8
0
390
0
  6
Continuous
 62
     7
100
AcDbLine
 10
-172.898316
 20
-4.363636
 30
0.0
 11
-172.898316
 21
-11.590909
 31
0.0
  0
LINE
  5
77
100
AcDbEntity
  8
0
390
0
  6
Continuous
 62
     7
100
AcDbLine
 10
-172.898316
 20
-11.590909
 30
0.0
 11
-165.671043
 21
-11.590909
 31
0.0
  0
SPLINE
  5
78
100
AcDbEntity
  8
0
390
0
  6
Continuous
 62
     7
100
AcDbSpline
210
0.0
220
0.0
230
1.0
 70
     0
 71
     2
 72
     8
 73
     5
 74
     0
 42
0.000001
 43
0.000001
 40
1.0
 40
1.0
 40
1.0
 40
2.0
 40
2.0
 40
3.0
 40
3.0
 40
3.0
 10
-161.85286159068116
 20
-4.7727269120475535
 30
0.0
 10
-160.89831613613569
 20
-4.681817821138468
 30
0.0
 10
-160.51806369964424
 20
-4.4346537374190254
 30
0.0
 10
-159.98922522704478
 20
-4.0909087302293816
 30
0.0
 10
-159.80740704522663
 20
-3.1818178211384662
 30
0.0
  0
LINE
  5
79
100
AcDbEntity
  8
0
390
0
  6
Continuous
 62
     7
100
AcDbLine
 10
-159.807407
 20
-3.181818
 30
0.0
 11
-158.53468
 21
-3.181818
 31
0.0
  0
LINE
  5
7A
100
AcDbEntity
  8
0
390
0
  6
Continuous
 62
     7
100
AcDbLine
 10
-158.53468
 20
-3.181818
 30
0.0
 11
-158.53468
 21
-12.545454
 31
0.0
  0
LINE
  5
7B
100
AcDbEntity
  8
0
390
0
  6
Continuous
 62
     7
100
AcDbLine
 10
-158.53468
 20
-12.545454
 30
0.0
 11
-160.080134
 21
-12.545454
 31
0.0
  0
LINE
  5
7C
100
AcDbEntity
  8
0
390
0
  6
Continuous
 62
     7
100
AcDbLine
 10
-160.080134
 20
-12.545454
 30
0.0
 11
-160.080134
 21
-5.909091
 31
0.0
  0
LINE
  5
7D
100
AcDbEntity
  8
0
390
0
  6
Continuous
 62
     7
100
AcDbLine
 10
-161.852862
 20
-5.909091
 30
0.0
 11
-161.852862
 21
-4.772727
 31
0.0
  0
LINE
  5
7E
100
AcDbEntity
  8
0
390
0
  6
Continuous
 62
     7
100
AcDbLine
 10
-160.080134
 20
-5.909091
 30
0.0
 11
-161.852862
 21
-5.909091
 31
0.0
  0
SPLINE
  5
7F
100
AcDbEntity
  8
0
390
0
  6
Continuous
 62
     7
100
AcDbSpline
210
0.0
220
0.0
230
1.0
 70
     0
 71
     2
 72
    20
 73
    17
 74
     0
 42
0.000001
 43
0.000001
 40
-1.0
 40
0.0
 40
0.0
 40
1.0
 40
1.0
 40
2.0
 40
2.0
 40
3.0
 40
3.0
 40
4.0
 40
4.0
 40
5.0
 40
5.0
 40
6.0
 40
6.0
 40
7.0
 40
7.0
 40
8.0
 40
8.0
 40
9.0
 10
-153.76195249977206
 20
-9.9545450938657289
 30
0.0
 10
-153.35286159068116
 20
-11.045454184774872
 30
0.0
 10
-152.57948548225349
 20
-11.178032946219608
 30
0.0
 10
-151.76195249977206
 20
-11.31818145750213
 30
0.0
 10
-151.27775323494515
 20
-10.400751271514297
 30
0.0
 10
-150.89831613613569
 20
-9.6818178211384716
 30
0.0
 10
-150.8148267061116
 20
-8.4086040132712032
 30
0.0
 10
-150.71649795431753
 20
-6.9090905484112124
 30
0.0
 10
-151.08665343526536
 20
-5.8203979573880353
 30
0.0
 10
-151.48922522704478
 20
-4.6363632756839523
 30
0.0
 10
-152.21467977249932
 20
-4.5327269120475355
 30
0.0
 10
-153.08013431795388
 20
-4.4090905484112097
 30
0.0
 10
-153.52488956270912
 20
-5.1874122267329126
 30
0.0
 10
-153.98922522704478
 20
-5.9999996393202419
 30
0.0
 10
-154.07294827940018
 20
-7.3186377139182195
 30
0.0
 10
-154.17104340886294
 20
-8.8636360029566426
 30
0.0
 10
-153.76195249977206
 20
-9.9545450938657289
 30
0.0
  0
SPLINE
  5
80
100
AcDbEntity
  8
0
390
0
  6
Continuous
 62
     7
100
AcDbSpline
210
0.0
220
0.0
230
1.0
 70
     0
 71
     2
 72
    20
 73
    17
 74
     0
 42
0.000001
 43
0.000001
 40
-1.0
 40
0.0
 40
0.0
 40
1.0
 40
1.0
 40
2.0
 40
2.0
 40
3.0
 40
3.0
 40
4.0
 40
4.0
 40
5.0
 40
5.0
 40
6.0
 40
6.0
 40
7.0
 40
7.0
 40
8.0
 40
8.0
 40
9.0
 10
-154.58350867285662
 20
-11.502580028363575
 30
0.0
 10
-155.48922522704478
 20
-10.31818145750213
 30
0.0
 10
-155.55241076853451
 20
-8.3173059769941489
 30
0.0
 10
-155.62558886340841
 20
-5.9999996393202419
 30
0.0
 10
-154.68330081437878
 20
-4.4923387608729044
 30
0.0
 10
-153.8074070452266
 20
-3.0909087302293803
 30
0.0
 10
-152.39831613613569
 20
-3.0909087302293803
 30
0.0
 10
-151.08013431795388
 20
-3.0909087302293803
 30
0.0
 10
-150.27667977249934
 20
-4.2514541847748504
 30
0.0
 10
-149.44377068159022
 20
-5.4545450938657813
 30
0.0
 10
-149.35962874234374
 20
-7.4529161509692692
 30
0.0
 10
-149.26195249977206
 20
-9.7727269120475579
 30
0.0
 10
-150.16478409440691
 20
-11.23114718030388
 30
0.0
 10
-151.03467977249932
 20
-12.636363275683959
 30
0.0
 10
-152.39831613613569
 20
-12.636363275683959
 30
0.0
 10
-153.71649795431753
 20
-12.636363275683959
 30
0.0
 10
-154.58350867285662
 20
-11.502580028363575
 30
0.0
  0
LINE
  5
81
100
AcDbEntity
  8
0
390
0
  6
Continuous
 62
     7
100
AcDbLine
 10
-155.338875
 20
12.997679
 30
0.0
 11
-151.297666
 21
2.994999
 31
0.0
  0
LINE
  5
82
100
AcDbEntity
  8
0
390
0
  6
Continuous
 62
     7
100
AcDbLine
 10
-152.754867
 20
12.997679
 30
0.0
 11
-155.338875
 21
12.997679
 31
0.0
  0
LINE
  5
83
100
AcDbEntity
  8
0
390
0
  6
Continuous
 62
     7
100
AcDbLine
 10
-148.71309
 20
2.994999
 30
0.0
 11
-152.754867
 21
12.997679
 31
0.0
  0
LINE
  5
84
100
AcDbEntity
  8
0
390
0
  6
Continuous
 62
     7
100
AcDbLine
 10
-151.297666
 20
2.994999
 30
0.0
 11
-148.71309
 21
2.994999
 31
0.0
  0
LINE
  5
85
100
AcDbEntity
  8
0
390
0
  6
Continuous
 62
     7
100
AcDbLine
 10
-137.228725
 20
4.449578
 30
0.0
 11
-137.816412
 21
2.994999
 31
0.0
  0
LINE
  5
86
100
AcDbEntity
  8
0
390
0
  6
Continuous
 62
     7
100
AcDbLine
 10
-130.969367
 20
12.997679
 30
0.0
 11
-133.583475
 21
12.997679
 31
0.0
  0
LINE
  5
87
100
AcDbEntity
  8
0
390
0
  6
Continuous
 62
     7
100
AcDbLine
 10
-130.969367
 20
6.331667
 30
0.0
 11
-130.969367
 21
12.997679
 31
0.0
  0
ARC
  5
88
100
AcDbEntity
  8
0
390
0
  6
Continuous
 62
     7
100
AcDbCircle
 10
-134.306035
 20
6.331667
 30
0.0
 40
3.336668
210
0.0
220
0.0
230
1.0
100
AcDbArc
 50
270.0
 51
360.0
  0
LINE
  5
89
100
AcDbEntity
  8
0
390
0
  6
Continuous
 62
     7
100
AcDbLine
 10
-137.816412
 20
2.994999
 30
0.0
 11
-134.306035
 21
2.994999
 31
0.0
  0
ARC
  5
8A
100
AcDbEntity
  8
0
390
0
  6
Continuous
 62
     7
100
AcDbCircle
 10
-135.80792
 20
6.674023
 30
0.0
 40
2.224445
210
0.0
220
0.0
230
1.0
100
AcDbArc
 50
270.0
 51
360.0
  0
LINE
  5
8B
100
AcDbEntity
  8
0
390
0
  6
Continuous
 62
     7
100
AcDbLine
 10
-135.80792
 20
4.449578
 30
0.0
 11
-137.228725
 21
4.449578
 31
0.0
  0
LINE
  5
8C
100
AcDbEntity
  8
0
390
0
  6
Continuous
 62
     7
100
AcDbLine
 10
-133.583475
 20
12.997679
 30
0.0
 11
-133.583475
 21
6.674023
 31
0.0
  0
LINE
  5
8D
100
AcDbEntity
  8
0
390
0
  6
Continuous
 62
     7
100
AcDbLine
 10
-139.676241
 20
2.994999
 30
0.0
 11
-135.635098
 21
12.997679
 31
0.0
  0
LINE
  5
8E
100
AcDbEntity
  8
0
390
0
  6
Continuous
 62
     7
100
AcDbLine
 10
-142.408608
 20
2.994999
 30
0.0
 11
-139.676241
 21
2.994999
 31
0.0
  0
LINE
  5
8F
100
AcDbEntity
  8
0
390
0
  6
Continuous
 62
     7
100
AcDbLine
 10
-144.467919
 20
8.091084
 30
0.0
 11
-142.408608
 21
2.994999
 31
0.0
  0
LINE
  5
90
100
AcDbEntity
  8
0
390
0
  6
Continuous
 62
     7
100
AcDbLine
 10
-141.042708
 20
6.011784
 30
0.0
 11
-143.175522
 21
11.290438
 31
0.0
  0
LINE
  5
91
100
AcDbEntity
  8
0
390
0
  6
Continuous
 62
     7
100
AcDbLine
 10
-138.219892
 20
12.997679
 30
0.0
 11
-141.042708
 21
6.011784
 31
0.0
  0
LINE
  5
92
100
AcDbEntity
  8
0
390
0
  6
Continuous
 62
     7
100
AcDbLine
 10
-135.635098
 20
12.997679
 30
0.0
 11
-138.219892
 21
12.997679
 31
0.0
  0
LINE
  5
93
100
AcDbEntity
  8
0
390
0
  6
Continuous
 62
     7
100
AcDbLine
 10
-143.175522
 20
11.290438
 30
0.0
 11
-144.467919
 21
8.091084
 31
0.0
  0
LINE
  5
94
100
AcDbEntity
  8
0
390
0
  6
Continuous
 62
     7
100
AcDbLine
 10
-146.853196
 20
2.994999
 30
0.0
 11
-144.268435
 21
2.994999
 31
0.0
  0
LINE
  5
95
100
AcDbEntity
  8
0
390
0
  6
Continuous
 62
     7
100
AcDbLine
 10
-148.310213
 20
12.997679
 30
0.0
 11
-150.894972
 21
12.997679
 31
0.0
  0
LINE
  5
96
100
AcDbEntity
  8
0
390
0
  6
Continuous
 62
     7
100
AcDbLine
 10
-144.268435
 20
2.994999
 30
0.0
 11
-148.310213
 21
12.997679
 31
0.0
  0
LINE
  5
97
100
AcDbEntity
  8
0
390
0
  6
Continuous
 62
     7
100
AcDbLine
 10
-150.894972
 20
12.997679
 30
0.0
 11
-146.853196
 21
2.994999
 31
0.0
  0
LINE
  5
98
100
AcDbEntity
  8
0
390
0
  6
Continuous
 62
     7
100
AcDbLine
 10
-154.033693
 20
5.305237
 30
0.0
 11
-156.129422
 21
10.494744
 31
0.0
  0
LINE
  5
99
100
AcDbEntity
  8
0
390
0
  6
Continuous
 62
     7
100
AcDbLine
 10
-159.159125
 20
2.994999
 30
0.0
 11
-156.575117
 21
2.994999
 31
0.0
  0
LINE
  5
9A
100
AcDbEntity
  8
0
390
0
  6
Continuous
 62
     7
100
AcDbLine
 10
-155.641041
 20
5.305237
 30
0.0
 11
-154.033693
 21
5.305237
 31
0.0
  0
LINE
  5
9B
100
AcDbEntity
  8
0
390
0
  6
Continuous
 62
     7
100
AcDbLine
 10
-156.129422
 20
10.494744
 30
0.0
 11
-159.159125
 21
2.994999
 31
0.0
  0
LINE
  5
9C
100
AcDbEntity
  8
0
390
0
  6
Continuous
 62
     7
100
AcDbLine
 10
-156.575117
 20
2.994999
 30
0.0
 11
-155.641041
 21
5.305237
 31
0.0
  0
LINE
  5
9D
100
AcDbEntity
  8
0
390
0
  6
Continuous
 62
     7
100
AcDbLine
 10
-95.549911
 20
24.475891
 30
0.0
 11
-95.549911
 21
27.475435
 31
0.0
  0
ELLIPSE
  5
9E
100
AcDbEntity
  8
0
390
0
  6
Continuous
 62
     7
100
AcDbEllipse
 10
-95.549911
 20
24.475891
 30
0.0
 11
2.1213203435596628
 21
-2.1213203435596073
 31
0.0
210
0.0
220
0.0
230
1.0
 40
0.999695
 41
0.7855504566450002
 42
2.3560421969447485
  0
LINE
  5
9F
100
AcDbEntity
  8
0
390
0
  6
Continuous
 62
     7
100
AcDbLine
 10
-95.549911
 20
24.475891
 30
0.0
 11
-92.550368
 21
24.475891
 31
0.0
  0
LINE
  5
A0
100
AcDbEntity
  8
0
390
0
  6
Continuous
 62
     7
100
AcDbLine
 10
-197.501236
 20
-24.475891
 30
0.0
 11
-197.501236
 21
24.475891
 31
0.0
  0
LINE
  5
A1
100
AcDbEntity
  8
0
390
0
  6
Continuous
 62
     7
100
AcDbLine
 10
-197.501236
 20
24.475891
 30
0.0
 11
-194.501693
 21
24.475891
 31
0.0
  0
LINE
  5
A2
100
AcDbEntity
  8
0
390
0
  6
Continuous
 62
     7
100
AcDbLine
 10
-194.501693
 20
24.475891
 30
0.0
 11
-194.501693
 21
-24.475891
 31
0.0
  0
LINE
  5
A3
100
AcDbEntity
  8
0
390
0
  6
Continuous
 62
     7
100
AcDbLine
 10
-197.501236
 20
-24.475891
 30
0.0
 11
-194.501693
 21
-24.475891
 31
0.0
  0
LINE
  5
A4
100
AcDbEntity
  8
0
390
0
  6
Continuous
 62
     7
100
AcDbLine
 10
-194.501693
 20
-24.475891
 30
0.0
 11
-95.549911
 21
-24.475891
 31
0.0
  0
LINE
  5
A5
100
AcDbEntity
  8
0
390
0
  6
Continuous
 62
     7
100
AcDbLine
 10
-95.549911
 20
-24.475891
 30
0.0
 11
-95.549911
 21
-27.475434
 31
0.0
  0
LINE
  5
A6
100
AcDbEntity
  8
0
390
0
  6
Continuous
 62
     7
100
AcDbLine
 10
-95.549911
 20
-27.475434
 30
0.0
 11
-194.501693
 21
-27.475434
 31
0.0
  0
LINE
  5
A7
100
AcDbEntity
  8
0
390
0
  6
Continuous
 62
     7
100
AcDbLine
 10
-194.501693
 20
-27.475434
 30
0.0
 11
-194.501693
 21
-24.475891
 31
0.0
  0
LINE
  5
A8
100
AcDbEntity
  8
0
390
0
  6
Continuous
 62
     7
100
AcDbLine
 10
-95.549911
 20
-24.475891
 30
0.0
 11
-92.550368
 21
-24.475891
 31
0.0
  0
ELLIPSE
  5
A9
100
AcDbEntity
  8
0
390
0
  6
Continuous
 62
     7
100
AcDbEllipse
 10
-95.549911
 20
-24.475891
 30
0.0
 11
-2.1213203435597738
 21
-2.1213203435595518
 31
0.0
210
0.0
220
0.0
230
1.0
 40
0.999695
 41
0.7855504566450841
 42
2.3560421969448142
  0
ELLIPSE
  5
AA
100
AcDbEntity
  8
0
390
0
  6
Continuous
 62
     7
100
AcDbEllipse
 10
-194.501693
 20
-24.475891
 30
0.0
 11
-2.1213203435594963
 21
2.1213203435597738
 31
0.0
210
0.0
220
0.0
230
1.0
 40
0.999695
 41
0.7855504566450529
 42
2.3560421969448013
  0
LINE
  5
AB
100
AcDbEntity
  8
0
390
0
  6
Continuous
 62
     7
100
AcDbLine
 10
-95.549911
 20
-24.475891
 30
0.0
 11
-95.549911
 21
24.475891
 31
0.0
  0
LINE
  5
AC
100
AcDbEntity
  8
0
390
0
  6
Continuous
 62
     7
100
AcDbLine
 10
-92.550368
 20
24.475891
 30
0.0
 11
-92.550368
 21
-24.475891
 31
0.0
  0
LINE
  5
AD
100
AcDbEntity
  8
0
390
0
  6
Continuous
 62
     7
100
AcDbLine
 10
-194.501693
 20
27.475435
 30
0.0
 11
-194.501693
 21
24.475891
 31
0.0
  0
ELLIPSE
  5
AE
100
AcDbEntity
  8
0
390
0
  6
Continuous
 62
     7
100
AcDbEllipse
 10
-194.501693
 20
24.475891
 30
0.0
 11
2.1213203435597738
 21
2.1213203435595518
 31
0.0
210
0.0
220
0.0
230
1.0
 40
0.999695
 41
0.7855504566450776
 42
2.3560421969448071
  0
LINE
  5
AF
100
AcDbEntity
  8
0
390
0
  6
Continuous
 62
     7
100
AcDbLine
 10
-95.549911
 20
24.475891
 30
0.0
 11
-194.501693
 21
24.475891
 31
0.0
  0
LINE
  5
B0
100
AcDbEntity
  8
0
390
0
  6
Continuous
 62
     7
100
AcDbLine
 10
-194.501693
 20
27.475435
 30
0.0
 11
-95.549911
 21
27.475435
 31
0.0
  0
LINE
  5
B1
100
AcDbEntity
  8
0
390
0
  6
Continuous
 62
     7
100
AcDbLine
 10
-198.549454
 20
-25.524109
 30
0.0
 11
-197.501236
 21
-24.475891
 31
0.0
  0
LINE
  5
B2
100
AcDbEntity
  8
0
390
0
  6
Continuous
 62
     7
100
AcDbLine
 10
-194.501693
 20
-27.475434
 30
0.0
 11
-195.549911
 21
-28.523652
 31
0.0
  0
ELLIPSE
  5
B3
100
AcDbEntity
  8
0
390
0
  6
Continuous
 62
     7
100
AcDbEllipse
 10
-195.548997
 20
-25.523195
 30
0.0
 11
-2.1219665675087374
 21
-2.1219665675087374
 31
0.0
210
0.0
220
0.0
230
0.9999999999999999
 40
0.999695
 41
5.4979394370297197
 42
7.0684311773294528
  0
LINE
  5
B4
100
AcDbEntity
  8
0
390
0
  6
Continuous
 62
     7
100
AcDbLine
 10
-195.549911
 20
28.523652
 30
0.0
 11
-194.501693
 21
27.475435
 31
0.0
  0
LINE
  5
B5
100
AcDbEntity
  8
0
390
0
  6
Continuous
 62
     7
100
AcDbLine
 10
-197.501236
 20
24.475891
 30
0.0
 11
-198.549454
 21
25.524109
 31
0.0
  0
ELLIPSE
  5
B6
100
AcDbEntity
  8
0
390
0
  6
Continuous
 62
     7
100
AcDbEllipse
 10
-195.548997
 20
25.523195
 30
0.0
 11
-2.1219665675087374
 21
2.1219665675087374
 31
0.0
210
0.0
220
0.0
230
0.9999999999999999
 40
0.999695
 41
5.4979394370297197
 42
7.0684311773294546
  0
LINE
  5
B7
100
AcDbEntity
  8
0
390
0
  6
Continuous
 62
     7
100
AcDbLine
 10
-91.50215
 20
25.524109
 30
0.0
 11
-92.550368
 21
24.475891
 31
0.0
  0
LINE
  5
B8
100
AcDbEntity
  8
0
390
0
  6
Continuous
 62
     7
100
AcDbLine
 10
-95.549911
 20
27.475435
 30
0.0
 11
-94.501693
 21
28.523652
 31
0.0
  0
ELLIPSE
  5
B9
100
AcDbEntity
  8
0
390
0
  6
Continuous
 62
     7
100
AcDbEllipse
 10
-94.502607
 20
25.523195
 30
0.0
 11
2.1219665675087374
 21
2.1219665675087374
 31
0.0
210
0.0
220
0.0
230
0.9999999999999999
 40
0.999695
 41
5.4979394370297188
 42
7.0684311773294528
  0
LINE
  5
BA
100
AcDbEntity
  8
0
390
0
  6
Continuous
 62
     7
100
AcDbLine
 10
-94.501693
 20
-28.523652
 30
0.0
 11
-95.549911
 21
-27.475434
 31
0.0
  0
LINE
  5
BB
100
AcDbEntity
  8
0
390
0
  6
Continuous
 62
     7
100
AcDbLine
 10
-92.550368
 20
-24.475891
 30
0.0
 11
-91.50215
 21
-25.524109
 31
0.0
  0
ELLIPSE
  5
BC
100
AcDbEntity
  8
0
390
0
  6
Continuous
 62
     7
100
AcDbEllipse
 10
-94.502607
 20
-25.523195
 30
0.0
 11
2.1219665675087374
 21
-2.1219665675087374
 31
0.0
210
0.0
220
0.0
230
0.9999999999999999
 40
0.999695
 41
5.4979394370297197
 42
7.0684311773294546
  0
LINE
  5
BD
100
AcDbEntity
  8
0
390
0
  6
Continuous
 62
     7
100
AcDbLine
 10
-198.549454
 20
25.524109
 30
0.0
 11
-198.549454
 21
-25.524109
 31
0.0
  0
LINE
  5
BE
100
AcDbEntity
  8
0
390
0
  6
Continuous
 62
     7
100
AcDbLine
 10
-195.549911
 20
-28.523652
 30
0.0
 11
-94.501693
 21
-28.523652
 31
0.0
  0
LINE
  5
BF
100
AcDbEntity
  8
0
390
0
  6
Continuous
 62
     7
100
AcDbLine
 10
-94.501693
 20
28.523652
 30
0.0
 11
-195.549911
 21
28.523652
 31
0.0
  0
LINE
  5
C0
100
AcDbEntity
  8
0
390
0
  6
Continuous
 62
     7
100
AcDbLine
 10
-91.50215
 20
-25.524109
 30
0.0
 11
-91.50215
 21
25.524109
 31
0.0
  0
POINT
  5
C1
100
AcDbEntity
  8
0
390
0
 62
     7
100
AcDbPoint
 10
0.0
 20
0.0
 30
0.0
  0
POINT
  5
C2
100
AcDbEntity
  8
0
390
0
 62
     7
100
AcDbPoint
 10
0.0
 20
0.0
 30
0.0
  0
ENDSEC
  0
SECTION
  2
OBJECTS
  0
DICTIONARY
  5
19
100
AcDbDictionary
280
     0
281
     1
  3
ACAD_GROUP
350
1A
  3
ACAD_MLINESTYLE
350
1B
  3
ACAD_LAYOUT
350
1E
  3
ACAD_PLOTSETTINGS
350
22
  3
ACAD_PLOTSTYLENAME
350
1F
  3
ACAD_WIPEOUT_VARS
350
23
  0
DICTIONARY
  5
1A
102
{ACAD_REACTORS
330
19
102
}
100
AcDbDictionary
280
     0
281
     1
  0
DICTIONARY
  5
1B
102
{ACAD_REACTORS
330
19
102
}
100
AcDbDictionary
280
     0
281
     1
  3
Standard
350
1C
  0
MLINESTYLE
  5
1C
102
{ACAD_REACTORS
330
1B
102
}
100
AcDbMlineStyle
  2
Standard
 70
     0
  3

 62
     0
 51
90.0
 52
90.0
 71
     2
 49
0.5
 62
   256
  6
ByLayer
 49
-0.5
 62
   256
  6
ByLayer
  0
ACDBDICTIONARYWDFLT
  5
1F
102
{ACAD_REACTORS
330
19
102
}
100
AcDbDictionary
281
     1
  3
Normal
350
1D
100
AcDbDictionaryWithDefault
340
1D
  0
ACDBPLACEHOLDER
  5
1D
102
{ACAD_REACTORS
330
1F
102
}
  0
LAYOUT
  5
20
102
{ACAD_REACTORS
330
1E
102
}
100
AcDbPlotSettings
  1

  2

  4

  6

 40
0.0
 41
0.0
 42
0.0
 43
0.0
 44
0.0
 45
0.0
 46
0.0
 47
0.0
 48
0.0
 49
0.0
140
0.0
141
0.0
142
1.0
143
1.0
 70
  1024
 72
     0
 73
     0
 74
     0
  7

 75
     0
147
1.0
148
0.0
149
0.0
100
AcDbLayout
  1
Model
 70
     0
 71
     1
 10
0.0
 20
0.0
 11
0.0
 21
0.0
 12
0.0
 22
0.0
 32
0.0
 14
0.0
 24
0.0
 34
0.0
 15
0.0
 25
0.0
 35
0.0
146
0.0
 13
0.0
 23
0.0
 33
0.0
 16
0.0
 26
0.0
 36
0.0
 17
0.0
 27
0.0
 37
0.0
 76
     0
330
A
331
0
345
0
346
0
  0
LAYOUT
  5
21
102
{ACAD_REACTORS
330
1E
102
}
100
AcDbPlotSettings
  1

  2

  4

  6

 40
0.0
 41
0.0
 42
0.0
 43
0.0
 44
0.0
 45
0.0
 46
0.0
 47
0.0
 48
0.0
 49
0.0
140
0.0
141
0.0
142
1.0
143
1.0
 70
     0
 72
     0
 73
     0
 74
     0
  7

 75
     0
147
1.0
148
0.0
149
0.0
100
AcDbLayout
  1
Layout1
 70
     0
 71
     2
 10
0.0
 20
0.0
 11
0.0
 21
0.0
 12
0.0
 22
0.0
 32
0.0
 14
0.0
 24
0.0
 34
0.0
 15
0.0
 25
0.0
 35
0.0
146
0.0
 13
0.0
 23
0.0
 33
0.0
 16
0.0
 26
0.0
 36
0.0
 17
0.0
 27
0.0
 37
0.0
 76
     0
330
B
331
0
345
0
346
0
  0
DICTIONARY
  5
1E
102
{ACAD_REACTORS
330
19
102
}
100
AcDbDictionary
280
     0
281
     1
  3
Layout1
350
21
  3
Model
350
20
  0
DICTIONARY
  5
22
102
{ACAD_REACTORS
330
19
102
}
100
AcDbDictionary
280
     0
281
     1
  0
WIPEOUTVARIABLES
  5
23
100
AcDbWipeoutVariables
 70
     1
  0
ENDSEC
  0
EOF
