  0
SECTION
  2
HEADER
  9
$ACADVER
  1
AC1015
  9
$ACADMAINTVER
 70
     6
  9
$DWGCODEPAGE
  3
DOS932
  9
$INSBASE
 10
0.0
 20
0.0
 30
0.0
  9
$EXTMIN
 10
-45.546739
 20
-156.18161
 30
0.0
  9
$EXTMAX
 10
167.658674
 20
36.643745
 30
0.0
  9
$LIMMIN
 10
-45.546739
 20
-156.18161
  9
$LIMMAX
 10
167.658674
 20
36.643745
  9
$ORTHOMODE
 70
     0
  9
$REGENMODE
 70
     1
  9
$FILLMODE
 70
     1
  9
$QTEXTMODE
 70
     0
  9
$MIRRTEXT
 70
     1
  9
$LTSCALE
 40
10.0
  9
$ATTMODE
 70
     1
  9
$TEXTSIZE
 40
0.2
  9
$TRACEWID
 40
0.05
  9
$TEXTSTYLE
  7
Standard
  9
$CLAYER
  8
0
  9
$CELTYPE
  6
Continuous
  9
$CECOLOR
 62
   256
  9
$CELTSCALE
 40
1.0
  9
$DISPSILH
 70
     0
  9
$DIMSCALE
 40
1.0
  9
$DIMASZ
 40
1.40208
  9
$DIMEXO
 40
1.40208
  9
$DIMDLI
 40
0.38
  9
$DIMRND
 40
0.0
  9
$DIMDLE
 40
0.0
  9
$DIMEXE
 40
1.05156
  9
$DIMTP
 40
0.0
  9
$DIMTM
 40
0.0
  9
$DIMTXT
 40
3.5052
  9
$DIMCEN
 40
0.09
  9
$DIMTSZ
 40
0.0
  9
$DIMTOL
 70
     0
  9
$DIMLIM
 70
     0
  9
$DIMTIH
 70
     0
  9
$DIMTOH
 70
     0
  9
$DIMSE1
 70
     0
  9
$DIMSE2
 70
     0
  9
$DIMTAD
 70
     1
  9
$DIMZIN
 70
     0
  9
$DIMBLK
  1

  9
$DIMASO
 70
     1
  9
$DIMSHO
 70
     1
  9
$DIMPOST
  1

  9
$DIMAPOST
  1

  9
$DIMALT
 70
     0
  9
$DIMALTD
 70
     2
  9
$DIMALTF
 40
25.4
  9
$DIMLFAC
 40
1.0
  9
$DIMTOFL
 70
     0
  9
$DIMTVP
 40
0.0
  9
$DIMTIX
 70
     0
  9
$DIMSOXD
 70
     0
  9
$DIMSAH
 70
     0
  9
$DIMBLK1
  1

  9
$DIMBLK2
  1

  9
$DIMSTYLE
  2
Standard
  9
$DIMCLRD
 70
     7
  9
$DIMCLRE
 70
     7
  9
$DIMCLRT
 70
     7
  9
$DIMTFAC
 40
0.5
  9
$DIMGAP
 40
1.7526
  9
$DIMJUST
 70
     0
  9
$DIMSD1
 70
     0
  9
$DIMSD2
 70
     0
  9
$DIMTOLJ
 70
     1
  9
$DIMTZIN
 70
     0
  9
$DIMALTZ
 70
     0
  9
$DIMALTTZ
 70
     0
  9
$DIMUPT
 70
     0
  9
$DIMDEC
 70
     2
  9
$DIMTDEC
 70
     4
  9
$DIMALTU
 70
     2
  9
$DIMALTTD
 70
     2
  9
$DIMTXSTY
  7
Standard
  9
$DIMAUNIT
 70
     0
  9
$DIMADEC
 70
     0
  9
$DIMALTRND
 40
0.0
  9
$DIMAZIN
 70
     0
  9
$DIMDSEP
 70
     0
  9
$DIMATFIT
 70
     3
  9
$DIMFRAC
 70
     0
  9
$DIMLDRBLK
  1

  9
$DIMLUNIT
 70
     2
  9
$DIMLWD
 70
     0
  9
$DIMLWE
 70
     0
  9
$DIMTMOVE
 70
     0
  9
$LUNITS
 70
     2
  9
$LUPREC
 70
     4
  9
$SKETCHINC
 40
0.1
  9
$FILLETRAD
 40
0.0
  9
$AUNITS
 70
     0
  9
$AUPREC
 70
     0
  9
$MENU
  1
acad
  9
$ELEVATION
 40
0.0
  9
$PELEVATION
 40
0.0
  9
$THICKNESS
 40
0.0
  9
$LIMCHECK
 70
     0
  9
$CHAMFERA
 40
0.0
  9
$CHAMFERB
 40
0.0
  9
$CHAMFERC
 40
0.0
  9
$CHAMFERD
 40
0.0
  9
$SKPOLY
 70
     0
  9
$TDCREATE
 40
2459745.558692130
  9
$TDUCREATE
 40
0.000000000
  9
$TDUPDATE
 40
2459745.183657407
  9
$TDUUPDATE
 40
0.000000000
  9
$TDINDWG
 40
0.0000000000
  9
$TDUSRTIMER
 40
0.0000000000
  9
$USRTIMER
 70
     1
  9
$ANGBASE
 50
0.0
  9
$ANGDIR
 70
     0
  9
$PDMODE
 70
     0
  9
$PDSIZE
 40
0.0
  9
$PLINEWID
 40
0.0
  9
$SPLFRAME
 70
     0
  9
$SPLINETYPE
 70
     6
  9
$SPLINESEGS
 70
     8
  9
$HANDSEED
  5
20A
  9
$SURFTAB1
 70
     6
  9
$SURFTAB2
 70
     6
  9
$SURFTYPE
 70
     6
  9
$SURFU
 70
     6
  9
$SURFV
 70
     6
  9
$UCSBASE
  2

  9
$UCSNAME
  2

  9
$UCSORG
 10
0.0
 20
0.0
 30
0.0
  9
$UCSXDIR
 10
1.0
 20
0.0
 30
0.0
  9
$UCSYDIR
 10
0.0
 20
1.0
 30
0.0
  9
$UCSORTHOREF
  2

  9
$UCSORTHOVIEW
 70
     0
  9
$UCSORGTOP
 10
0.0
 20
0.0
 30
0.0
  9
$UCSORGBOTTOM
 10
0.0
 20
0.0
 30
0.0
  9
$UCSORGLEFT
 10
0.0
 20
0.0
 30
0.0
  9
$UCSORGRIGHT
 10
0.0
 20
0.0
 30
0.0
  9
$UCSORGFRONT
 10
0.0
 20
0.0
 30
0.0
  9
$UCSORGBACK
 10
0.0
 20
0.0
 30
0.0
  9
$PUCSBASE
  2

  9
$PUCSNAME
  2

  9
$PUCSORG
 10
0.0
 20
0.0
 30
0.0
  9
$PUCSXDIR
 10
1.0
 20
0.0
 30
0.0
  9
$PUCSYDIR
 10
0.0
 20
1.0
 30
0.0
  9
$PUCSORTHOREF
  2

  9
$PUCSORTHOVIEW
 70
     0
  9
$PUCSORGTOP
 10
0.0
 20
0.0
 30
0.0
  9
$PUCSORGBOTTOM
 10
0.0
 20
0.0
 30
0.0
  9
$PUCSORGLEFT
 10
0.0
 20
0.0
 30
0.0
  9
$PUCSORGRIGHT
 10
0.0
 20
0.0
 30
0.0
  9
$PUCSORGFRONT
 10
0.0
 20
0.0
 30
0.0
  9
$PUCSORGBACK
 10
0.0
 20
0.0
 30
0.0
  9
$USERI1
 70
     0
  9
$USERI2
 70
     0
  9
$USERI3
 70
     0
  9
$USERI4
 70
     0
  9
$USERI5
 70
     0
  9
$USERR1
 40
0.0
  9
$USERR2
 40
0.0
  9
$USERR3
 40
0.0
  9
$USERR4
 40
0.0
  9
$USERR5
 40
0.0
  9
$WORLDVIEW
 70
     1
  9
$SHADEDGE
 70
     3
  9
$SHADEDIF
 70
    70
  9
$TILEMODE
 70
     1
  9
$MAXACTVP
 70
    16
  9
$PINSBASE
 10
0.0
 20
0.0
 30
0.0
  9
$PLIMCHECK
 70
     0
  9
$PEXTMIN
 10
1.000000E+20
 20
1.000000E+20
 30
1.000000E+20
  9
$PEXTMAX
 10
-1.000000E+20
 20
-1.000000E+20
 30
-1.000000E+20
  9
$PLIMMIN
 10
0.0
 20
0.0
  9
$PLIMMAX
 10
12.0
 20
9.0
  9
$UNITMODE
 70
     0
  9
$VISRETAIN
 70
     0
  9
$PLINEGEN
 70
     1
  9
$PSLTSCALE
 70
     0
  9
$TREEDEPTH
 70
  3020
  9
$CMLSTYLE
  2
Standard
  9
$CMLJUST
 70
     0
  9
$CMLSCALE
 40
1.0
  9
$PROXYGRAPHICS
 70
     0
  9
$MEASUREMENT
 70
     0
  9
$CELWEIGHT
370
     0
  9
$ENDCAPS
280
     0
  9
$JOINSTYLE
280
     0
  9
$LWDISPLAY
290
     0
  9
$INSUNITS
 70
     0
  9
$HYPERLINKBASE
  1

  9
$STYLESHEET
  1

  9
$XEDIT
290
     1
  9
$CEPSNTYPE
380
     0
  9
$PSTYLEMODE
290
     1
  9
$FINGERPRINTGUID
  2

  9
$VERSIONGUID
  2

  9
$EXTNAMES
290
     1
  9
$PSVPSCALE
 40
0.0
  0
ENDSEC
  0
SECTION
  2
CLASSES
  0
CLASS
  1
LWPOLYLINE
  2
AcDbPolyline
  3
AutoCAD 2000
 90
        0
280
     0
281
     1
  0
CLASS
  1
IMAGE
  2
AcDbRasterImage
  3
ISM
 90
      127
280
     0
281
     1
  0
CLASS
  1
OLE2FRAME
  2
AcDbOle2Frame
  3
AutoCAD 2000
 90
        0
280
     0
281
     1
  0
CLASS
  1
HATCH
  2
AcDbHatch
  3
AutoCAD 2000
 90
        0
280
     0
281
     1
  0
CLASS
  1
DICTIONARYVAR
  2
AcDbDictionaryVar
  3
AutoCAD 2000
 90
        0
280
     0
281
     0
  0
CLASS
  1
RASTERVARIABLES
  2
AcDbRasterVariables
  3
ISM
 90
        0
280
     0
281
     0
  0
CLASS
  1
IMAGEDEF
  2
AcDbRasterImageDef
  3
ISM
 90
        0
280
     0
281
     0
  0
CLASS
  1
IMAGEDEF_REACTOR
  2
AcDbRasterImageDefReactor
  3
ISM
 90
        1
280
     0
281
     0
  0
CLASS
  1
IDBUFFER
  2
AcDbIdBuffer
  3
AutoCAD 2000
 90
        0
280
     0
281
     0
  0
CLASS
  1
SPATIAL_FILTER
  2
AcDbSpatialFilter
  3
AutoCAD 2000
 90
        0
280
     0
281
     0
  0
CLASS
  1
XRECORD
  2
AcDbXrecord
  3
AutoCAD 2000
 90
        0
280
     0
281
     0
  0
CLASS
  1
SORTENTSTABLE
  2
AcDbSortentsTable
  3
AutoCAD 2000
 90
        0
280
     0
281
     0
  0
CLASS
  1
LAYER_INDEX
  2
AcDbLayerIndex
  3
AutoCAD 2000
 90
        0
280
     0
281
     0
  0
CLASS
  1
SPATIAL_INDEX
  2
AcDbSpatialIndex
  3
AutoCAD 2000
 90
        0
280
     0
281
     0
  0
CLASS
  1
OBJECT_PTR
  2
CAseDLPNTableRecord
  3
"ASE-LPNTableRecord"
 90
        1
280
     0
281
     0
  0
CLASS
  1
LAYOUT
  2
AcDbLayout
  3
AutoCAD 2000
 90
        0
280
     0
281
     0
  0
CLASS
  1
PLOTSETTINGS
  2
AcDbPlotSettings
  3
AutoCAD 2000
 90
        0
280
     0
281
     0
  0
CLASS
  1
ACDBDICTIONARYWDFLT
  2
AcDbDictionaryWithDefault
  3
AutoCAD 2000
 90
        0
280
     0
281
     0
  0
CLASS
  1
ACDBPLACEHOLDER
  2
AcDbPlaceHolder
  3
AutoCAD 2000
 90
        0
280
     0
281
     0
  0
CLASS
  1
VBA_PROJECT
  2
AcDbVbaProject
  3
acadvba
 90
        0
280
     0
281
     0
  0
CLASS
  1
WIPEOUT
  2
AcDbWipeout
  3
WipeOut|AutoCAD Express Tool|expresstools@autodesk.com
 90
      127
280
     0
281
     1
  0
CLASS
  1
WIPEOUTVARIABLES
  2
AcDbWipeoutVariables
  3
WipeOut|AutoCAD Express Tool|expresstools@autodesk.com
 90
        0
280
     0
281
     0
  0
CLASS
  1
RTEXT
  2
RText
  3
RText|AutoCAD Express Tool|expresstools@autodesk.com
 90
        0
280
     0
281
     1
  0
CLASS
  1
ARCALIGNEDTEXT
  2
AcDbArcAlignedText
  3
ATEXT|AutoCAD Express Tool|expresstools@autodesk.com
 90
        0
280
     0
281
     1
  0
ENDSEC
  0
SECTION
  2
TABLES
  0
TABLE
  2
VPORT
  5
7
100
AcDbSymbolTable
 70
     1
  0
VPORT
  5
15
100
AcDbSymbolTableRecord
100
AcDbViewportTableRecord
  2
*ACTIVE
 70
     0
 10
0.0
 20
0.0
 11
1.0
 21
1.0
 12
6.591288
 22
4.579184
 13
0.0
 23
0.0
 14
1.0
 24
1.0
 15
0.0
 25
0.0
 16
0.0
 26
0.0
 36
1.0
 17
0.0
 27
0.0
 37
0.0
 40
9.158369
 41
0.688564
 42
50.0
 43
0.0
 44
0.0
 50
0.0
 51
0.0
 71
     0
 72
   100
 73
     1
 74
     1
 75
     0
 76
     0
 77
     0
 78
     0
281
     0
 65
     0
110
0.0
120
0.0
130
0.0
111
1.0
121
0.0
131
0.0
112
0.0
122
1.0
132
0.0
345
0
346
0
 79
     0
146
0.0
  0
ENDTAB
  0
TABLE
  2
LTYPE
  5
4
100
AcDbSymbolTable
 70
     3
  0
LTYPE
  5
11
100
AcDbSymbolTableRecord
100
AcDbLinetypeTableRecord
  2
ByBlock
 70
    64
  3

 72
    65
 73
     0
 40
0.0
  0
LTYPE
  5
12
100
AcDbSymbolTableRecord
100
AcDbLinetypeTableRecord
  2
ByLayer
 70
    64
  3

 72
    65
 73
     0
 40
0.0
  0
LTYPE
  5
13
100
AcDbSymbolTableRecord
100
AcDbLinetypeTableRecord
  2
Continuous
 70
    64
  3
Solid line
 72
    65
 73
     0
 40
0.0
  0
ENDTAB
  0
TABLE
  2
LAYER
  5
2
100
AcDbSymbolTable
 70
     1
  0
LAYER
  5
14
100
AcDbSymbolTableRecord
100
AcDbLayerTableRecord
  2
0
 70
     0
 62
     7
  6
Continuous
290
     1
370
    -3
390
1D
  0
ENDTAB
  0
TABLE
  2
STYLE
  5
3
100
AcDbSymbolTable
 70
     1
  0
STYLE
  5
17
100
AcDbSymbolTableRecord
100
AcDbTextStyleTableRecord
  2
Standard
 70
     0
 40
0.0
 41
1.0
 50
0.0
 71
     0
 42
0.0
  3
FG教科書体NT-M
  4

1001
ACAD
1000
FG教科書体NT-M
1071
        0
  0
ENDTAB
  0
TABLE
  2
VIEW
  5
5
100
AcDbSymbolTable
 70
     0
  0
ENDTAB
  0
TABLE
  2
UCS
  5
6
100
AcDbSymbolTable
 70
     0
  0
ENDTAB
  0
TABLE
  2
APPID
  5
8
100
AcDbSymbolTable
 70
     2
  0
APPID
  5
16
100
AcDbSymbolTableRecord
100
AcDbRegAppTableRecord
  2
ACAD
 70
     0
  0
APPID
  5
26
100
AcDbSymbolTableRecord
100
AcDbRegAppTableRecord
  2
TOPsolid_Design
 70
     0
  0
ENDTAB
  0
TABLE
  2
DIMSTYLE
  5
9
100
AcDbSymbolTable
 70
     1
100
AcDbDimStyleTable
 71
     0
  0
DIMSTYLE
105
18
100
AcDbSymbolTableRecord
100
AcDbDimStyleTableRecord
  2
Standard
 70
     0
  3

  4

 40
1.0
 41
1.40208
 42
1.40208
 43
0.38
 44
1.05156
 45
0.0
 46
0.0
 47
0.0
 48
0.0
 71
     0
 72
     0
 73
     0
 74
     0
 75
     0
 76
     0
 77
     1
 78
     0
 79
     0
140
3.5052
141
0.09
142
0.0
143
25.4
144
1.0
145
0.0
146
0.5
147
1.7526
148
0.0
170
     0
171
     2
172
     0
173
     0
174
     0
175
     0
176
     7
177
     7
178
     7
179
     0
271
     2
272
     4
273
     2
274
     2
275
     0
276
     0
277
     2
278
    46
279
     0
280
     0
281
     0
282
     0
283
     1
284
     0
285
     0
286
     0
288
     0
289
     3
340
17
341
0
342
0
343
0
344
0
371
    -2
372
    -2
  0
ENDTAB
  0
TABLE
  2
BLOCK_RECORD
  5
1
100
AcDbSymbolTable
 70
     0
  0
BLOCK_RECORD
  5
A
100
AcDbSymbolTableRecord
100
AcDbBlockTableRecord
  2
*MODEL_SPACE
340
20
  0
BLOCK_RECORD
  5
B
100
AcDbSymbolTableRecord
100
AcDbBlockTableRecord
  2
*PAPER_SPACE
340
21
  0
ENDTAB
  0
ENDSEC
  0
SECTION
  2
BLOCKS
  0
BLOCK
  5
D
100
AcDbEntity
  8
0
390
0
100
AcDbBlockBegin
  2
*MODEL_SPACE
 70
     0
 10
0.0
 20
0.0
 30
0.0
  3
*MODEL_SPACE
  1

  0
ENDBLK
  5
E
100
AcDbEntity
  8
0
390
0
100
AcDbBlockEnd
  0
BLOCK
  5
F
100
AcDbEntity
 67
     1
  8
0
390
0
100
AcDbBlockBegin
  2
*PAPER_SPACE
 70
     0
 10
0.0
 20
0.0
 30
0.0
  3
*PAPER_SPACE
  1

  0
ENDBLK
  5
10
100
AcDbEntity
 67
     1
  8
0
390
0
100
AcDbBlockEnd
  0
ENDSEC
  0
SECTION
  2
ENTITIES
  0
LINE
  5
27
100
AcDbEntity
  8
0
390
0
  6
Continuous
 62
     7
100
AcDbLine
 10
21.153295
 20
-38.655329
 30
0.0
 11
21.153295
 21
-31.405885
 31
0.0
  0
LINE
  5
28
100
AcDbEntity
  8
0
390
0
  6
Continuous
 62
     7
100
AcDbLine
 10
21.153295
 20
-31.405885
 30
0.0
 11
26.030794
 21
-31.405885
 31
0.0
  0
LINE
  5
29
100
AcDbEntity
  8
0
390
0
  6
Continuous
 62
     7
100
AcDbLine
 10
26.030794
 20
-31.405885
 30
0.0
 11
26.030794
 21
-38.655329
 31
0.0
  0
POLYLINE
  5
2A
100
AcDbEntity
  8
0
390
0
  6
Continuous
 62
     7
100
AcDb2dPolyline
 66
     1
 10
0.0
 20
0.0
 30
0.0
 40
0.1
 41
0.1
  0
VERTEX
  5
2B
100
AcDbEntity
  8
0
390
0
 62
     7
100
AcDbVertex
100
AcDb2dVertex
 10
26.030794
 20
-38.655329
 30
0.0
 42
-0.100817
  0
VERTEX
  5
2C
100
AcDbEntity
  8
0
390
0
 62
     7
100
AcDbVertex
100
AcDb2dVertex
 10
23.998151
 20
-39.383323
 30
0.0
  0
VERTEX
  5
2D
100
AcDbEntity
  8
0
390
0
 62
     7
100
AcDbVertex
100
AcDb2dVertex
 10
23.592045
 20
-39.405885
 30
0.0
  0
SEQEND
  5
2E
100
AcDbEntity
  8
0
390
0
  0
POLYLINE
  5
2F
100
AcDbEntity
  8
0
390
0
  6
Continuous
 62
     7
100
AcDb2dPolyline
 66
     1
 10
0.0
 20
0.0
 30
0.0
 40
0.1
 41
0.1
  0
VERTEX
  5
30
100
AcDbEntity
  8
0
390
0
 62
     7
100
AcDbVertex
100
AcDb2dVertex
 10
23.592045
 20
-39.405885
 30
0.0
  0
VERTEX
  5
31
100
AcDbEntity
  8
0
390
0
 62
     7
100
AcDbVertex
100
AcDb2dVertex
 10
23.185784
 20
-39.383293
 30
0.0
 42
-0.106673
  0
VERTEX
  5
32
100
AcDbEntity
  8
0
390
0
 62
     7
100
AcDbVertex
100
AcDb2dVertex
 10
21.153295
 20
-38.655329
 30
0.0
  0
SEQEND
  5
33
100
AcDbEntity
  8
0
390
0
  0
LINE
  5
34
100
AcDbEntity
  8
0
390
0
  6
Continuous
 62
     7
100
AcDbLine
 10
35.875727
 20
-38.655329
 30
0.0
 11
35.875727
 21
-31.405885
 31
0.0
  0
LINE
  5
35
100
AcDbEntity
  8
0
390
0
  6
Continuous
 62
     7
100
AcDbLine
 10
35.875727
 20
-31.405885
 30
0.0
 11
40.753226
 21
-31.405885
 31
0.0
  0
LINE
  5
36
100
AcDbEntity
  8
0
390
0
  6
Continuous
 62
     7
100
AcDbLine
 10
40.753226
 20
-31.405885
 30
0.0
 11
40.753226
 21
-38.655329
 31
0.0
  0
LINE
  5
37
100
AcDbEntity
  8
0
390
0
  6
Continuous
 62
     7
100
AcDbLine
 10
39.431364
 20
-39.239231
 30
0.0
 11
38.314477
 21
-39.405885
 31
0.0
  0
POLYLINE
  5
38
100
AcDbEntity
  8
0
390
0
  6
Continuous
 62
     7
100
AcDb2dPolyline
 66
     1
 10
0.0
 20
0.0
 30
0.0
 40
0.1
 41
0.1
  0
VERTEX
  5
39
100
AcDbEntity
  8
0
390
0
 62
     7
100
AcDbVertex
100
AcDb2dVertex
 10
38.314477
 20
-39.405885
 30
0.0
  0
VERTEX
  5
3A
100
AcDbEntity
  8
0
390
0
 62
     7
100
AcDbVertex
100
AcDb2dVertex
 10
37.908907
 20
-39.38337
 30
0.0
 42
-0.106747
  0
VERTEX
  5
3B
100
AcDbEntity
  8
0
390
0
 62
     7
100
AcDbVertex
100
AcDb2dVertex
 10
35.875727
 20
-38.655329
 30
0.0
  0
SEQEND
  5
3C
100
AcDbEntity
  8
0
390
0
  0
LINE
  5
3D
100
AcDbEntity
  8
0
390
0
  6
Continuous
 62
     7
100
AcDbLine
 10
35.83076
 20
-31.405885
 30
0.0
 11
35.83076
 21
-38.655329
 31
0.0
  0
LINE
  5
3E
100
AcDbEntity
  8
0
390
0
  6
Continuous
 62
     7
100
AcDbLine
 10
26.075761
 20
-31.405885
 30
0.0
 11
35.83076
 21
-31.405885
 31
0.0
  0
LINE
  5
3F
100
AcDbEntity
  8
0
390
0
  6
Continuous
 62
     7
100
AcDbLine
 10
26.075761
 20
-38.655329
 30
0.0
 11
26.075761
 21
-31.405885
 31
0.0
  0
ARC
  5
40
100
AcDbEntity
  8
0
390
0
  6
Continuous
 62
     7
100
AcDbCircle
 10
31.146084
 20
-21.929273
 30
0.0
 40
17.477676
210
0.0
220
0.0
230
1.0
100
AcDbArc
 50
253.135888
 51
269.367867
  0
LINE
  5
41
100
AcDbEntity
  8
0
390
0
  6
Continuous
 62
     7
100
AcDbLine
 10
35.83076
 20
-38.655329
 30
0.0
 11
33.416641
 21
-39.203951
 31
0.0
  0
LINE
  5
42
100
AcDbEntity
  8
0
390
0
  6
Continuous
 62
     7
100
AcDbLine
 10
33.416641
 20
-39.203951
 30
0.0
 11
30.953261
 21
-39.405885
 31
0.0
  0
LINE
  5
43
100
AcDbEntity
  8
0
390
0
  6
Continuous
 62
     7
100
AcDbLine
 10
40.753226
 20
-31.405885
 30
0.0
 11
35.875727
 21
-31.405885
 31
0.0
  0
LINE
  5
44
100
AcDbEntity
  8
0
390
0
  6
Continuous
 62
     7
100
AcDbLine
 10
35.875727
 20
-31.405885
 30
0.0
 11
35.83076
 21
-31.405885
 31
0.0
  0
LINE
  5
45
100
AcDbEntity
  8
0
390
0
  6
Continuous
 62
     7
100
AcDbLine
 10
35.83076
 20
-31.405885
 30
0.0
 11
26.075761
 21
-31.405885
 31
0.0
  0
LINE
  5
46
100
AcDbEntity
  8
0
390
0
  6
Continuous
 62
     7
100
AcDbLine
 10
26.075761
 20
-31.405885
 30
0.0
 11
26.030794
 21
-31.405885
 31
0.0
  0
LINE
  5
47
100
AcDbEntity
  8
0
390
0
  6
Continuous
 62
     7
100
AcDbLine
 10
26.030794
 20
-31.405885
 30
0.0
 11
21.153295
 21
-31.405885
 31
0.0
  0
LINE
  5
48
100
AcDbEntity
  8
0
390
0
  6
Continuous
 62
     7
100
AcDbLine
 10
22.453261
 20
-39.405885
 30
0.0
 11
23.592045
 21
-39.405885
 31
0.0
  0
LINE
  5
49
100
AcDbEntity
  8
0
390
0
  6
Continuous
 62
     7
100
AcDbLine
 10
38.314477
 20
-39.405885
 30
0.0
 11
39.453261
 21
-39.405885
 31
0.0
  0
LINE
  5
4A
100
AcDbEntity
  8
0
390
0
  6
Continuous
 62
     7
100
AcDbLine
 10
30.953261
 20
-39.405885
 30
0.0
 11
38.314477
 21
-39.405885
 31
0.0
  0
LINE
  5
4B
100
AcDbEntity
  8
0
390
0
  6
Continuous
 62
     7
100
AcDbLine
 10
23.592045
 20
-39.405885
 30
0.0
 11
30.953261
 21
-39.405885
 31
0.0
  0
LINE
  5
4C
100
AcDbEntity
  8
0
390
0
  6
Continuous
 62
     7
100
AcDbLine
 10
26.030794
 20
-31.405885
 30
0.0
 11
26.030794
 21
-38.655329
 31
0.0
  0
LINE
  5
4D
100
AcDbEntity
  8
0
390
0
  6
Continuous
 62
     7
100
AcDbLine
 10
26.075761
 20
-31.405885
 30
0.0
 11
26.030794
 21
-31.405885
 31
0.0
  0
LINE
  5
4E
100
AcDbEntity
  8
0
390
0
  6
Continuous
 62
     7
100
AcDbLine
 10
26.075761
 20
-38.655329
 30
0.0
 11
26.075761
 21
-31.405885
 31
0.0
  0
LINE
  5
4F
100
AcDbEntity
  8
0
390
0
  6
Continuous
 62
     7
100
AcDbLine
 10
26.030794
 20
-38.655329
 30
0.0
 11
26.075761
 21
-38.655329
 31
0.0
  0
LINE
  5
50
100
AcDbEntity
  8
0
390
0
  6
Continuous
 62
     7
100
AcDbLine
 10
35.83076
 20
-31.405885
 30
0.0
 11
35.83076
 21
-38.655329
 31
0.0
  0
LINE
  5
51
100
AcDbEntity
  8
0
390
0
  6
Continuous
 62
     7
100
AcDbLine
 10
35.875727
 20
-31.405885
 30
0.0
 11
35.83076
 21
-31.405885
 31
0.0
  0
LINE
  5
52
100
AcDbEntity
  8
0
390
0
  6
Continuous
 62
     7
100
AcDbLine
 10
35.875727
 20
-38.655329
 30
0.0
 11
35.875727
 21
-31.405885
 31
0.0
  0
LINE
  5
53
100
AcDbEntity
  8
0
390
0
  6
Continuous
 62
     7
100
AcDbLine
 10
35.83076
 20
-38.655329
 30
0.0
 11
35.875727
 21
-38.655329
 31
0.0
  0
LINE
  5
54
100
AcDbEntity
  8
0
390
0
  6
Continuous
 62
     7
100
AcDbLine
 10
40.753226
 20
-31.405885
 30
0.0
 11
40.753226
 21
-38.655329
 31
0.0
  0
LINE
  5
55
100
AcDbEntity
  8
0
390
0
  6
Continuous
 62
     7
100
AcDbLine
 10
21.153295
 20
-38.655329
 30
0.0
 11
21.153295
 21
-31.405885
 31
0.0
  0
LINE
  5
56
100
AcDbEntity
  8
0
390
0
  6
Continuous
 62
     7
100
AcDbLine
 10
30.953261
 20
-39.405885
 30
0.0
 11
38.314477
 21
-39.405885
 31
0.0
  0
POLYLINE
  5
57
100
AcDbEntity
  8
0
390
0
  6
Continuous
 62
     7
100
AcDb2dPolyline
 66
     1
 10
0.0
 20
0.0
 30
0.0
 40
0.1
 41
0.1
  0
VERTEX
  5
58
100
AcDbEntity
  8
0
390
0
 62
     7
100
AcDbVertex
100
AcDb2dVertex
 10
38.314477
 20
-39.405885
 30
0.0
  0
VERTEX
  5
59
100
AcDbEntity
  8
0
390
0
 62
     7
100
AcDbVertex
100
AcDb2dVertex
 10
37.905501
 20
-39.383388
 30
0.0
 42
-0.106303
  0
VERTEX
  5
5A
100
AcDbEntity
  8
0
390
0
 62
     7
100
AcDbVertex
100
AcDb2dVertex
 10
35.875727
 20
-38.655329
 30
0.0
  0
SEQEND
  5
5B
100
AcDbEntity
  8
0
390
0
  0
LINE
  5
5C
100
AcDbEntity
  8
0
390
0
  6
Continuous
 62
     7
100
AcDbLine
 10
35.875727
 20
-38.655329
 30
0.0
 11
35.83076
 21
-38.655329
 31
0.0
  0
LINE
  5
5D
100
AcDbEntity
  8
0
390
0
  6
Continuous
 62
     7
100
AcDbLine
 10
35.83076
 20
-38.655329
 30
0.0
 11
33.416641
 21
-39.203951
 31
0.0
  0
LINE
  5
5E
100
AcDbEntity
  8
0
390
0
  6
Continuous
 62
     7
100
AcDbLine
 10
33.416641
 20
-39.203951
 30
0.0
 11
30.953261
 21
-39.405885
 31
0.0
  0
LINE
  5
5F
100
AcDbEntity
  8
0
390
0
  6
Continuous
 62
     7
100
AcDbLine
 10
38.314477
 20
-39.405885
 30
0.0
 11
39.453261
 21
-39.405885
 31
0.0
  0
POLYLINE
  5
60
100
AcDbEntity
  8
0
390
0
  6
Continuous
 62
     7
100
AcDb2dPolyline
 66
     1
 10
0.0
 20
0.0
 30
0.0
 40
0.1
 41
0.1
  0
VERTEX
  5
61
100
AcDbEntity
  8
0
390
0
 62
     7
100
AcDbVertex
100
AcDb2dVertex
 10
40.753226
 20
-38.655329
 30
0.0
 42
-0.100652
  0
VERTEX
  5
62
100
AcDbEntity
  8
0
390
0
 62
     7
100
AcDbVertex
100
AcDb2dVertex
 10
38.722481
 20
-39.383447
 30
0.0
  0
VERTEX
  5
63
100
AcDbEntity
  8
0
390
0
 62
     7
100
AcDbVertex
100
AcDb2dVertex
 10
38.314477
 20
-39.405885
 30
0.0
  0
SEQEND
  5
64
100
AcDbEntity
  8
0
390
0
  0
LINE
  5
65
100
AcDbEntity
  8
0
390
0
  6
Continuous
 62
     7
100
AcDbLine
 10
22.453261
 20
-39.405885
 30
0.0
 11
23.592045
 21
-39.405885
 31
0.0
  0
LINE
  5
66
100
AcDbEntity
  8
0
390
0
  6
Continuous
 62
     7
100
AcDbLine
 10
23.592045
 20
-39.405885
 30
0.0
 11
22.475332
 21
-39.239316
 31
0.0
  0
LINE
  5
67
100
AcDbEntity
  8
0
390
0
  6
Continuous
 62
     7
100
AcDbLine
 10
22.475332
 20
-39.239316
 30
0.0
 11
21.153295
 21
-38.655329
 31
0.0
  0
POLYLINE
  5
68
100
AcDbEntity
  8
0
390
0
  6
Continuous
 62
     7
100
AcDb2dPolyline
 66
     1
 10
0.0
 20
0.0
 30
0.0
 40
0.1
 41
0.1
  0
VERTEX
  5
69
100
AcDbEntity
  8
0
390
0
 62
     7
100
AcDbVertex
100
AcDb2dVertex
 10
26.030794
 20
-38.655329
 30
0.0
 42
-0.100611
  0
VERTEX
  5
6A
100
AcDbEntity
  8
0
390
0
 62
     7
100
AcDbVertex
100
AcDb2dVertex
 10
24.001468
 20
-39.383341
 30
0.0
  0
VERTEX
  5
6B
100
AcDbEntity
  8
0
390
0
 62
     7
100
AcDbVertex
100
AcDb2dVertex
 10
23.592045
 20
-39.405885
 30
0.0
  0
SEQEND
  5
6C
100
AcDbEntity
  8
0
390
0
  0
LINE
  5
6D
100
AcDbEntity
  8
0
390
0
  6
Continuous
 62
     7
100
AcDbLine
 10
26.075761
 20
-38.655329
 30
0.0
 11
26.030794
 21
-38.655329
 31
0.0
  0
ARC
  5
6E
100
AcDbEntity
  8
0
390
0
  6
Continuous
 62
     7
100
AcDbCircle
 10
31.146084
 20
-21.929273
 30
0.0
 40
17.477676
210
0.0
220
0.0
230
1.0
100
AcDbArc
 50
253.135888
 51
269.367867
  0
LINE
  5
6F
100
AcDbEntity
  8
0
390
0
  6
Continuous
 62
     7
100
AcDbLine
 10
23.592045
 20
-39.405885
 30
0.0
 11
30.953261
 21
-39.405885
 31
0.0
  0
LINE
  5
70
100
AcDbEntity
  8
0
390
0
  6
Continuous
 62
     7
100
AcDbLine
 10
-35.969206
 20
-31.405885
 30
0.0
 11
-35.969206
 21
-38.655329
 31
0.0
  0
LINE
  5
71
100
AcDbEntity
  8
0
390
0
  6
Continuous
 62
     7
100
AcDbLine
 10
-40.846705
 20
-31.405885
 30
0.0
 11
-35.969206
 21
-31.405885
 31
0.0
  0
LINE
  5
72
100
AcDbEntity
  8
0
390
0
  6
Continuous
 62
     7
100
AcDbLine
 10
-40.846705
 20
-38.655329
 30
0.0
 11
-40.846705
 21
-31.405885
 31
0.0
  0
POLYLINE
  5
73
100
AcDbEntity
  8
0
390
0
  6
Continuous
 62
     7
100
AcDb2dPolyline
 66
     1
 10
0.0
 20
0.0
 30
0.0
 40
0.1
 41
0.1
  0
VERTEX
  5
74
100
AcDbEntity
  8
0
390
0
 62
     7
100
AcDbVertex
100
AcDb2dVertex
 10
-38.407955
 20
-39.405885
 30
0.0
  0
VERTEX
  5
75
100
AcDbEntity
  8
0
390
0
 62
     7
100
AcDbVertex
100
AcDb2dVertex
 10
-38.814216
 20
-39.383293
 30
0.0
 42
-0.106673
  0
VERTEX
  5
76
100
AcDbEntity
  8
0
390
0
 62
     7
100
AcDbVertex
100
AcDb2dVertex
 10
-40.846705
 20
-38.655329
 30
0.0
  0
SEQEND
  5
77
100
AcDbEntity
  8
0
390
0
  0
POLYLINE
  5
78
100
AcDbEntity
  8
0
390
0
  6
Continuous
 62
     7
100
AcDb2dPolyline
 66
     1
 10
0.0
 20
0.0
 30
0.0
 40
0.1
 41
0.1
  0
VERTEX
  5
79
100
AcDbEntity
  8
0
390
0
 62
     7
100
AcDbVertex
100
AcDb2dVertex
 10
-35.969206
 20
-38.655329
 30
0.0
 42
-0.100817
  0
VERTEX
  5
7A
100
AcDbEntity
  8
0
390
0
 62
     7
100
AcDbVertex
100
AcDb2dVertex
 10
-38.001849
 20
-39.383323
 30
0.0
  0
VERTEX
  5
7B
100
AcDbEntity
  8
0
390
0
 62
     7
100
AcDbVertex
100
AcDb2dVertex
 10
-38.407955
 20
-39.405885
 30
0.0
  0
SEQEND
  5
7C
100
AcDbEntity
  8
0
390
0
  0
LINE
  5
7D
100
AcDbEntity
  8
0
390
0
  6
Continuous
 62
     7
100
AcDbLine
 10
-21.246774
 20
-31.405885
 30
0.0
 11
-21.246774
 21
-38.655329
 31
0.0
  0
LINE
  5
7E
100
AcDbEntity
  8
0
390
0
  6
Continuous
 62
     7
100
AcDbLine
 10
-26.124273
 20
-31.405885
 30
0.0
 11
-21.246774
 21
-31.405885
 31
0.0
  0
LINE
  5
7F
100
AcDbEntity
  8
0
390
0
  6
Continuous
 62
     7
100
AcDbLine
 10
-26.124273
 20
-38.655329
 30
0.0
 11
-26.124273
 21
-31.405885
 31
0.0
  0
POLYLINE
  5
80
100
AcDbEntity
  8
0
390
0
  6
Continuous
 62
     7
100
AcDb2dPolyline
 66
     1
 10
0.0
 20
0.0
 30
0.0
 40
0.1
 41
0.1
  0
VERTEX
  5
81
100
AcDbEntity
  8
0
390
0
 62
     7
100
AcDbVertex
100
AcDb2dVertex
 10
-23.685523
 20
-39.405885
 30
0.0
  0
VERTEX
  5
82
100
AcDbEntity
  8
0
390
0
 62
     7
100
AcDbVertex
100
AcDb2dVertex
 10
-24.091093
 20
-39.38337
 30
0.0
 42
-0.106747
  0
VERTEX
  5
83
100
AcDbEntity
  8
0
390
0
 62
     7
100
AcDbVertex
100
AcDb2dVertex
 10
-26.124273
 20
-38.655329
 30
0.0
  0
SEQEND
  5
84
100
AcDbEntity
  8
0
390
0
  0
LINE
  5
85
100
AcDbEntity
  8
0
390
0
  6
Continuous
 62
     7
100
AcDbLine
 10
-22.568636
 20
-39.239231
 30
0.0
 11
-23.685523
 21
-39.405885
 31
0.0
  0
LINE
  5
86
100
AcDbEntity
  8
0
390
0
  6
Continuous
 62
     7
100
AcDbLine
 10
-26.16924
 20
-31.405885
 30
0.0
 11
-26.16924
 21
-38.655329
 31
0.0
  0
LINE
  5
87
100
AcDbEntity
  8
0
390
0
  6
Continuous
 62
     7
100
AcDbLine
 10
-35.924239
 20
-31.405885
 30
0.0
 11
-26.16924
 21
-31.405885
 31
0.0
  0
LINE
  5
88
100
AcDbEntity
  8
0
390
0
  6
Continuous
 62
     7
100
AcDbLine
 10
-35.924239
 20
-38.655329
 30
0.0
 11
-35.924239
 21
-31.405885
 31
0.0
  0
ARC
  5
89
100
AcDbEntity
  8
0
390
0
  6
Continuous
 62
     7
100
AcDbCircle
 10
-30.853916
 20
-21.929273
 30
0.0
 40
17.477676
210
0.0
220
0.0
230
1.0
100
AcDbArc
 50
253.135888
 51
269.367867
  0
LINE
  5
8A
100
AcDbEntity
  8
0
390
0
  6
Continuous
 62
     7
100
AcDbLine
 10
-26.16924
 20
-38.655329
 30
0.0
 11
-28.583359
 21
-39.203951
 31
0.0
  0
LINE
  5
8B
100
AcDbEntity
  8
0
390
0
  6
Continuous
 62
     7
100
AcDbLine
 10
-28.583359
 20
-39.203951
 30
0.0
 11
-31.046739
 21
-39.405885
 31
0.0
  0
LINE
  5
8C
100
AcDbEntity
  8
0
390
0
  6
Continuous
 62
     7
100
AcDbLine
 10
-21.246774
 20
-31.405885
 30
0.0
 11
-26.124273
 21
-31.405885
 31
0.0
  0
LINE
  5
8D
100
AcDbEntity
  8
0
390
0
  6
Continuous
 62
     7
100
AcDbLine
 10
-26.124273
 20
-31.405885
 30
0.0
 11
-26.16924
 21
-31.405885
 31
0.0
  0
LINE
  5
8E
100
AcDbEntity
  8
0
390
0
  6
Continuous
 62
     7
100
AcDbLine
 10
-26.16924
 20
-31.405885
 30
0.0
 11
-35.924239
 21
-31.405885
 31
0.0
  0
LINE
  5
8F
100
AcDbEntity
  8
0
390
0
  6
Continuous
 62
     7
100
AcDbLine
 10
-35.924239
 20
-31.405885
 30
0.0
 11
-35.969206
 21
-31.405885
 31
0.0
  0
LINE
  5
90
100
AcDbEntity
  8
0
390
0
  6
Continuous
 62
     7
100
AcDbLine
 10
-35.969206
 20
-31.405885
 30
0.0
 11
-40.846705
 21
-31.405885
 31
0.0
  0
LINE
  5
91
100
AcDbEntity
  8
0
390
0
  6
Continuous
 62
     7
100
AcDbLine
 10
-39.546739
 20
-39.405885
 30
0.0
 11
-38.407955
 21
-39.405885
 31
0.0
  0
LINE
  5
92
100
AcDbEntity
  8
0
390
0
  6
Continuous
 62
     7
100
AcDbLine
 10
-23.685523
 20
-39.405885
 30
0.0
 11
-22.546739
 21
-39.405885
 31
0.0
  0
LINE
  5
93
100
AcDbEntity
  8
0
390
0
  6
Continuous
 62
     7
100
AcDbLine
 10
-31.046739
 20
-39.405885
 30
0.0
 11
-23.685523
 21
-39.405885
 31
0.0
  0
LINE
  5
94
100
AcDbEntity
  8
0
390
0
  6
Continuous
 62
     7
100
AcDbLine
 10
-38.407955
 20
-39.405885
 30
0.0
 11
-31.046739
 21
-39.405885
 31
0.0
  0
LINE
  5
95
100
AcDbEntity
  8
0
390
0
  6
Continuous
 62
     7
100
AcDbLine
 10
-35.969206
 20
-31.405885
 30
0.0
 11
-35.969206
 21
-38.655329
 31
0.0
  0
LINE
  5
96
100
AcDbEntity
  8
0
390
0
  6
Continuous
 62
     7
100
AcDbLine
 10
-35.924239
 20
-31.405885
 30
0.0
 11
-35.969206
 21
-31.405885
 31
0.0
  0
LINE
  5
97
100
AcDbEntity
  8
0
390
0
  6
Continuous
 62
     7
100
AcDbLine
 10
-35.924239
 20
-38.655329
 30
0.0
 11
-35.924239
 21
-31.405885
 31
0.0
  0
LINE
  5
98
100
AcDbEntity
  8
0
390
0
  6
Continuous
 62
     7
100
AcDbLine
 10
-35.969206
 20
-38.655329
 30
0.0
 11
-35.924239
 21
-38.655329
 31
0.0
  0
LINE
  5
99
100
AcDbEntity
  8
0
390
0
  6
Continuous
 62
     7
100
AcDbLine
 10
-26.16924
 20
-31.405885
 30
0.0
 11
-26.16924
 21
-38.655329
 31
0.0
  0
LINE
  5
9A
100
AcDbEntity
  8
0
390
0
  6
Continuous
 62
     7
100
AcDbLine
 10
-26.124273
 20
-31.405885
 30
0.0
 11
-26.16924
 21
-31.405885
 31
0.0
  0
LINE
  5
9B
100
AcDbEntity
  8
0
390
0
  6
Continuous
 62
     7
100
AcDbLine
 10
-26.124273
 20
-38.655329
 30
0.0
 11
-26.124273
 21
-31.405885
 31
0.0
  0
LINE
  5
9C
100
AcDbEntity
  8
0
390
0
  6
Continuous
 62
     7
100
AcDbLine
 10
-26.16924
 20
-38.655329
 30
0.0
 11
-26.124273
 21
-38.655329
 31
0.0
  0
LINE
  5
9D
100
AcDbEntity
  8
0
390
0
  6
Continuous
 62
     7
100
AcDbLine
 10
-21.246774
 20
-31.405885
 30
0.0
 11
-21.246774
 21
-38.655329
 31
0.0
  0
LINE
  5
9E
100
AcDbEntity
  8
0
390
0
  6
Continuous
 62
     7
100
AcDbLine
 10
-40.846705
 20
-38.655329
 30
0.0
 11
-40.846705
 21
-31.405885
 31
0.0
  0
LINE
  5
9F
100
AcDbEntity
  8
0
390
0
  6
Continuous
 62
     7
100
AcDbLine
 10
-31.046739
 20
-39.405885
 30
0.0
 11
-23.685523
 21
-39.405885
 31
0.0
  0
POLYLINE
  5
A0
100
AcDbEntity
  8
0
390
0
  6
Continuous
 62
     7
100
AcDb2dPolyline
 66
     1
 10
0.0
 20
0.0
 30
0.0
 40
0.1
 41
0.1
  0
VERTEX
  5
A1
100
AcDbEntity
  8
0
390
0
 62
     7
100
AcDbVertex
100
AcDb2dVertex
 10
-23.685523
 20
-39.405885
 30
0.0
  0
VERTEX
  5
A2
100
AcDbEntity
  8
0
390
0
 62
     7
100
AcDbVertex
100
AcDb2dVertex
 10
-24.094499
 20
-39.383388
 30
0.0
 42
-0.106303
  0
VERTEX
  5
A3
100
AcDbEntity
  8
0
390
0
 62
     7
100
AcDbVertex
100
AcDb2dVertex
 10
-26.124273
 20
-38.655329
 30
0.0
  0
SEQEND
  5
A4
100
AcDbEntity
  8
0
390
0
  0
LINE
  5
A5
100
AcDbEntity
  8
0
390
0
  6
Continuous
 62
     7
100
AcDbLine
 10
-26.124273
 20
-38.655329
 30
0.0
 11
-26.16924
 21
-38.655329
 31
0.0
  0
LINE
  5
A6
100
AcDbEntity
  8
0
390
0
  6
Continuous
 62
     7
100
AcDbLine
 10
-26.16924
 20
-38.655329
 30
0.0
 11
-28.583359
 21
-39.203951
 31
0.0
  0
LINE
  5
A7
100
AcDbEntity
  8
0
390
0
  6
Continuous
 62
     7
100
AcDbLine
 10
-28.583359
 20
-39.203951
 30
0.0
 11
-31.046739
 21
-39.405885
 31
0.0
  0
LINE
  5
A8
100
AcDbEntity
  8
0
390
0
  6
Continuous
 62
     7
100
AcDbLine
 10
-23.685523
 20
-39.405885
 30
0.0
 11
-22.546739
 21
-39.405885
 31
0.0
  0
POLYLINE
  5
A9
100
AcDbEntity
  8
0
390
0
  6
Continuous
 62
     7
100
AcDb2dPolyline
 66
     1
 10
0.0
 20
0.0
 30
0.0
 40
0.1
 41
0.1
  0
VERTEX
  5
AA
100
AcDbEntity
  8
0
390
0
 62
     7
100
AcDbVertex
100
AcDb2dVertex
 10
-21.246774
 20
-38.655329
 30
0.0
 42
-0.100652
  0
VERTEX
  5
AB
100
AcDbEntity
  8
0
390
0
 62
     7
100
AcDbVertex
100
AcDb2dVertex
 10
-23.277519
 20
-39.383447
 30
0.0
  0
VERTEX
  5
AC
100
AcDbEntity
  8
0
390
0
 62
     7
100
AcDbVertex
100
AcDb2dVertex
 10
-23.685523
 20
-39.405885
 30
0.0
  0
SEQEND
  5
AD
100
AcDbEntity
  8
0
390
0
  0
LINE
  5
AE
100
AcDbEntity
  8
0
390
0
  6
Continuous
 62
     7
100
AcDbLine
 10
-39.546739
 20
-39.405885
 30
0.0
 11
-38.407955
 21
-39.405885
 31
0.0
  0
LINE
  5
AF
100
AcDbEntity
  8
0
390
0
  6
Continuous
 62
     7
100
AcDbLine
 10
-38.407955
 20
-39.405885
 30
0.0
 11
-39.524668
 21
-39.239316
 31
0.0
  0
LINE
  5
B0
100
AcDbEntity
  8
0
390
0
  6
Continuous
 62
     7
100
AcDbLine
 10
-39.524668
 20
-39.239316
 30
0.0
 11
-40.846705
 21
-38.655329
 31
0.0
  0
LINE
  5
B1
100
AcDbEntity
  8
0
390
0
  6
Continuous
 62
     7
100
AcDbLine
 10
-35.924239
 20
-38.655329
 30
0.0
 11
-35.969206
 21
-38.655329
 31
0.0
  0
POLYLINE
  5
B2
100
AcDbEntity
  8
0
390
0
  6
Continuous
 62
     7
100
AcDb2dPolyline
 66
     1
 10
0.0
 20
0.0
 30
0.0
 40
0.1
 41
0.1
  0
VERTEX
  5
B3
100
AcDbEntity
  8
0
390
0
 62
     7
100
AcDbVertex
100
AcDb2dVertex
 10
-35.969206
 20
-38.655329
 30
0.0
 42
-0.100611
  0
VERTEX
  5
B4
100
AcDbEntity
  8
0
390
0
 62
     7
100
AcDbVertex
100
AcDb2dVertex
 10
-37.998532
 20
-39.383341
 30
0.0
  0
VERTEX
  5
B5
100
AcDbEntity
  8
0
390
0
 62
     7
100
AcDbVertex
100
AcDb2dVertex
 10
-38.407955
 20
-39.405885
 30
0.0
  0
SEQEND
  5
B6
100
AcDbEntity
  8
0
390
0
  0
LINE
  5
B7
100
AcDbEntity
  8
0
390
0
  6
Continuous
 62
     7
100
AcDbLine
 10
-38.407955
 20
-39.405885
 30
0.0
 11
-31.046739
 21
-39.405885
 31
0.0
  0
ARC
  5
B8
100
AcDbEntity
  8
0
390
0
  6
Continuous
 62
     7
100
AcDbCircle
 10
-30.853916
 20
-21.929273
 30
0.0
 40
17.477676
210
0.0
220
0.0
230
1.0
100
AcDbArc
 50
253.135888
 51
269.367867
  0
LINE
  5
B9
100
AcDbEntity
  8
0
390
0
  6
Continuous
 62
     7
100
AcDbLine
 10
-13.996739
 20
-20.205885
 30
0.0
 11
-13.114431
 21
-20.205885
 31
0.0
  0
LINE
  5
BA
100
AcDbEntity
  8
0
390
0
  6
Continuous
 62
     7
100
AcDbLine
 10
-13.114431
 20
-20.205885
 30
0.0
 11
-9.996739
 21
-22.005885
 31
0.0
  0
LINE
  5
BB
100
AcDbEntity
  8
0
390
0
  6
Continuous
 62
     7
100
AcDbLine
 10
-9.996739
 20
-22.005885
 30
0.0
 11
-9.996739
 21
-24.205885
 31
0.0
  0
LINE
  5
BC
100
AcDbEntity
  8
0
390
0
  6
Continuous
 62
     7
100
AcDbLine
 10
-13.996739
 20
-24.205885
 30
0.0
 11
-13.996739
 21
-20.205885
 31
0.0
  0
LINE
  5
BD
100
AcDbEntity
  8
0
390
0
  6
Continuous
 62
     7
100
AcDbLine
 10
-13.996739
 20
-20.205885
 30
0.0
 11
-13.114431
 21
-20.205885
 31
0.0
  0
LINE
  5
BE
100
AcDbEntity
  8
0
390
0
  6
Continuous
 62
     7
100
AcDbLine
 10
-13.114431
 20
-20.205885
 30
0.0
 11
-9.99674
 21
-22.005884
 31
0.0
  0
LINE
  5
BF
100
AcDbEntity
  8
0
390
0
  6
Continuous
 62
     7
100
AcDbLine
 10
-9.996739
 20
-22.005885
 30
0.0
 11
-9.996739
 21
-24.205884
 31
0.0
  0
LINE
  5
C0
100
AcDbEntity
  8
0
390
0
  6
Continuous
 62
     7
100
AcDbLine
 10
-13.996739
 20
-24.205885
 30
0.0
 11
-13.996739
 21
-20.205885
 31
0.0
  0
LINE
  5
C1
100
AcDbEntity
  8
0
390
0
  6
Continuous
 62
     7
100
AcDbLine
 10
13.903261
 20
-20.205885
 30
0.0
 11
13.020952
 21
-20.205885
 31
0.0
  0
LINE
  5
C2
100
AcDbEntity
  8
0
390
0
  6
Continuous
 62
     7
100
AcDbLine
 10
13.903261
 20
-24.205885
 30
0.0
 11
13.903261
 21
-20.205885
 31
0.0
  0
LINE
  5
C3
100
AcDbEntity
  8
0
390
0
  6
Continuous
 62
     7
100
AcDbLine
 10
9.903261
 20
-22.005885
 30
0.0
 11
9.903261
 21
-24.205885
 31
0.0
  0
LINE
  5
C4
100
AcDbEntity
  8
0
390
0
  6
Continuous
 62
     7
100
AcDbLine
 10
13.020952
 20
-20.205885
 30
0.0
 11
9.903261
 21
-22.005885
 31
0.0
  0
LINE
  5
C5
100
AcDbEntity
  8
0
390
0
  6
Continuous
 62
     7
100
AcDbLine
 10
9.903261
 20
-24.205885
 30
0.0
 11
9.903261
 21
-22.005885
 31
0.0
  0
LINE
  5
C6
100
AcDbEntity
  8
0
390
0
  6
Continuous
 62
     7
100
AcDbLine
 10
9.903261
 20
-22.005885
 30
0.0
 11
13.020952
 21
-20.205885
 31
0.0
  0
LINE
  5
C7
100
AcDbEntity
  8
0
390
0
  6
Continuous
 62
     7
100
AcDbLine
 10
13.020952
 20
-20.205885
 30
0.0
 11
13.90326
 21
-20.205885
 31
0.0
  0
LINE
  5
C8
100
AcDbEntity
  8
0
390
0
  6
Continuous
 62
     7
100
AcDbLine
 10
13.903261
 20
-20.205885
 30
0.0
 11
13.903261
 21
-24.205884
 31
0.0
  0
LINE
  5
C9
100
AcDbEntity
  8
0
390
0
  6
Continuous
 62
     7
100
AcDbLine
 10
25.553261
 20
-27.705885
 30
0.0
 11
36.353261
 21
-27.705885
 31
0.0
  0
LINE
  5
CA
100
AcDbEntity
  8
0
390
0
  6
Continuous
 62
     7
100
AcDbLine
 10
25.553261
 20
-27.705885
 30
0.0
 11
36.353261
 21
-27.705885
 31
0.0
  0
LINE
  5
CB
100
AcDbEntity
  8
0
390
0
  6
Continuous
 62
     7
100
AcDbLine
 10
-45.546739
 20
-25.705885
 30
0.0
 11
-45.546739
 21
-24.205885
 31
0.0
  0
LINE
  5
CC
100
AcDbEntity
  8
0
390
0
  6
Continuous
 62
     7
100
AcDbLine
 10
43.453261
 20
-24.205885
 30
0.0
 11
43.453261
 21
-25.705885
 31
0.0
  0
LINE
  5
CD
100
AcDbEntity
  8
0
390
0
  6
Continuous
 62
     7
100
AcDbLine
 10
30.953261
 20
-24.205885
 30
0.0
 11
30.953261
 21
-25.705885
 31
0.0
  0
LINE
  5
CE
100
AcDbEntity
  8
0
390
0
  6
Continuous
 62
     7
100
AcDbLine
 10
43.453261
 20
-24.205885
 30
0.0
 11
30.953261
 21
-24.205885
 31
0.0
  0
LINE
  5
CF
100
AcDbEntity
  8
0
390
0
  6
Continuous
 62
     7
100
AcDbLine
 10
43.453261
 20
-25.705885
 30
0.0
 11
43.453261
 21
-24.205885
 31
0.0
  0
LINE
  5
D0
100
AcDbEntity
  8
0
390
0
  6
Continuous
 62
     7
100
AcDbLine
 10
30.953261
 20
-25.705885
 30
0.0
 11
43.453261
 21
-25.705885
 31
0.0
  0
LINE
  5
D1
100
AcDbEntity
  8
0
390
0
  6
Continuous
 62
     7
100
AcDbLine
 10
30.95326
 20
-25.705884
 30
0.0
 11
30.953261
 21
-24.205885
 31
0.0
  0
LINE
  5
D2
100
AcDbEntity
  8
0
390
0
  6
Continuous
 62
     7
100
AcDbLine
 10
-33.046739
 20
-25.705884
 30
0.0
 11
30.95326
 21
-25.705884
 31
0.0
  0
LINE
  5
D3
100
AcDbEntity
  8
0
390
0
  6
Continuous
 62
     7
100
AcDbLine
 10
-33.046739
 20
-24.205885
 30
0.0
 11
-33.046739
 21
-25.705884
 31
0.0
  0
LINE
  5
D4
100
AcDbEntity
  8
0
390
0
  6
Continuous
 62
     7
100
AcDbLine
 10
30.953261
 20
-24.205885
 30
0.0
 11
-33.046739
 21
-24.205885
 31
0.0
  0
LINE
  5
D5
100
AcDbEntity
  8
0
390
0
  6
Continuous
 62
     7
100
AcDbLine
 10
-45.546739
 20
-24.205885
 30
0.0
 11
-45.546739
 21
-25.705885
 31
0.0
  0
LINE
  5
D6
100
AcDbEntity
  8
0
390
0
  6
Continuous
 62
     7
100
AcDbLine
 10
-33.046739
 20
-24.205885
 30
0.0
 11
-45.546739
 21
-24.205885
 31
0.0
  0
LINE
  5
D7
100
AcDbEntity
  8
0
390
0
  6
Continuous
 62
     7
100
AcDbLine
 10
-33.046739
 20
-25.705885
 30
0.0
 11
-33.046739
 21
-24.205885
 31
0.0
  0
LINE
  5
D8
100
AcDbEntity
  8
0
390
0
  6
Continuous
 62
     7
100
AcDbLine
 10
-45.546739
 20
-25.705885
 30
0.0
 11
-33.046739
 21
-25.705885
 31
0.0
  0
LINE
  5
D9
100
AcDbEntity
  8
0
390
0
  6
Continuous
 62
     7
100
AcDbLine
 10
-45.546739
 20
-24.205885
 30
0.0
 11
-33.046739
 21
-24.205885
 31
0.0
  0
LINE
  5
DA
100
AcDbEntity
  8
0
390
0
  6
Continuous
 62
     7
100
AcDbLine
 10
-33.046739
 20
-24.205885
 30
0.0
 11
30.953261
 21
-24.205885
 31
0.0
  0
LINE
  5
DB
100
AcDbEntity
  8
0
390
0
  6
Continuous
 62
     7
100
AcDbLine
 10
30.953261
 20
-24.205885
 30
0.0
 11
43.453261
 21
-24.205885
 31
0.0
  0
LINE
  5
DC
100
AcDbEntity
  8
0
390
0
  6
Continuous
 62
     7
100
AcDbLine
 10
30.953261
 20
-25.705885
 30
0.0
 11
43.453261
 21
-25.705885
 31
0.0
  0
LINE
  5
DD
100
AcDbEntity
  8
0
390
0
  6
Continuous
 62
     7
100
AcDbLine
 10
-33.046739
 20
-25.705885
 30
0.0
 11
30.953261
 21
-25.705885
 31
0.0
  0
LINE
  5
DE
100
AcDbEntity
  8
0
390
0
  6
Continuous
 62
     7
100
AcDbLine
 10
-45.546739
 20
-25.705885
 30
0.0
 11
-33.046739
 21
-25.705885
 31
0.0
  0
LINE
  5
DF
100
AcDbEntity
  8
0
390
0
  6
Continuous
 62
     7
100
AcDbLine
 10
-26.446739
 20
-56.405885
 30
0.0
 11
-35.646739
 21
-56.405885
 31
0.0
  0
LINE
  5
E0
100
AcDbEntity
  8
0
390
0
  6
Continuous
 62
     7
100
AcDbLine
 10
-35.646739
 20
-56.405885
 30
0.0
 11
-26.446739
 21
-56.405885
 31
0.0
  0
LINE
  5
E1
100
AcDbEntity
  8
0
390
0
  6
Continuous
 62
     7
100
AcDbLine
 10
35.553261
 20
-56.405885
 30
0.0
 11
26.353261
 21
-56.405885
 31
0.0
  0
LINE
  5
E2
100
AcDbEntity
  8
0
390
0
  6
Continuous
 62
     7
100
AcDbLine
 10
26.353261
 20
-56.405885
 30
0.0
 11
35.553261
 21
-56.405885
 31
0.0
  0
LINE
  5
E3
100
AcDbEntity
  8
0
390
0
  6
Continuous
 62
     7
100
AcDbLine
 10
-24.596739
 20
-0.034628
 30
0.0
 11
-24.596739
 21
-7.582241
 31
0.0
  0
LINE
  5
E4
100
AcDbEntity
  8
0
390
0
  6
Continuous
 62
     7
100
AcDbLine
 10
-24.596739
 20
-7.582241
 30
0.0
 11
-24.596739
 21
-23.105885
 31
0.0
  0
LINE
  5
E5
100
AcDbEntity
  8
0
390
0
  6
Continuous
 62
     7
100
AcDbLine
 10
36.553261
 20
-23.105885
 30
0.0
 11
26.503858
 21
-23.105885
 31
0.0
  0
POLYLINE
  5
E6
100
AcDbEntity
  8
0
390
0
  6
Continuous
 62
     7
100
AcDb2dPolyline
 66
     1
 10
0.0
 20
0.0
 30
0.0
 40
0.1
 41
0.1
  0
VERTEX
  5
E7
100
AcDbEntity
  8
0
390
0
 62
     7
100
AcDbVertex
100
AcDb2dVertex
 10
26.503261
 20
-23.105885
 30
0.0
  0
VERTEX
  5
E8
100
AcDbEntity
  8
0
390
0
 62
     7
100
AcDbVertex
100
AcDb2dVertex
 10
26.503261
 20
0.044115
 30
0.0
 42
1.0
  0
VERTEX
  5
E9
100
AcDbEntity
  8
0
390
0
 62
     7
100
AcDbVertex
100
AcDb2dVertex
 10
-26.596739
 20
0.044115
 30
0.0
  0
VERTEX
  5
EA
100
AcDbEntity
  8
0
390
0
 62
     7
100
AcDbVertex
100
AcDb2dVertex
 10
-26.596739
 20
-23.105885
 30
0.0
  0
SEQEND
  5
EB
100
AcDbEntity
  8
0
390
0
  0
LINE
  5
EC
100
AcDbEntity
  8
0
390
0
  6
Continuous
 62
     7
100
AcDbLine
 10
-26.596739
 20
-23.105885
 30
0.0
 11
-36.646739
 21
-23.105885
 31
0.0
  0
LINE
  5
ED
100
AcDbEntity
  8
0
390
0
  6
Continuous
 62
     7
100
AcDbLine
 10
26.503261
 20
-23.105885
 30
0.0
 11
36.552329
 21
-23.105885
 31
0.0
  0
LINE
  5
EE
100
AcDbEntity
  8
0
390
0
  6
Continuous
 62
     7
100
AcDbLine
 10
24.503261
 20
-23.105885
 30
0.0
 11
26.503261
 21
-23.105885
 31
0.0
  0
LINE
  5
EF
100
AcDbEntity
  8
0
390
0
  6
Continuous
 62
     7
100
AcDbLine
 10
-26.596739
 20
-23.105885
 30
0.0
 11
-24.596739
 21
-23.105885
 31
0.0
  0
LINE
  5
F0
100
AcDbEntity
  8
0
390
0
  6
Continuous
 62
     7
100
AcDbLine
 10
-24.596739
 20
-23.105885
 30
0.0
 11
-24.596739
 21
-7.682251
 31
0.0
  0
LINE
  5
F1
100
AcDbEntity
  8
0
390
0
  6
Continuous
 62
     7
100
AcDbLine
 10
-24.596739
 20
-7.682251
 30
0.0
 11
-24.596647
 21
-0.029174
 31
0.0
  0
POLYLINE
  5
F2
100
AcDbEntity
  8
0
390
0
  6
Continuous
 62
     7
100
AcDb2dPolyline
 66
     1
 10
0.0
 20
0.0
 30
0.0
 40
0.1
 41
0.1
  0
VERTEX
  5
F3
100
AcDbEntity
  8
0
390
0
 62
     7
100
AcDbVertex
100
AcDb2dVertex
 10
-24.596647
 20
-0.029174
 30
0.0
 42
-1.045178
  0
VERTEX
  5
F4
100
AcDbEntity
  8
0
390
0
 62
     7
100
AcDbVertex
100
AcDb2dVertex
 10
24.503295
 20
-2.141122
 30
0.0
 42
0.000002
  0
VERTEX
  5
F5
100
AcDbEntity
  8
0
390
0
 62
     7
100
AcDbVertex
100
AcDb2dVertex
 10
24.503261
 20
-23.105885
 30
0.0
  0
SEQEND
  5
F6
100
AcDbEntity
  8
0
390
0
  0
LINE
  5
F7
100
AcDbEntity
  8
0
390
0
  6
Continuous
 62
     7
100
AcDbLine
 10
24.503261
 20
-23.105885
 30
0.0
 11
26.503261
 21
-23.105885
 31
0.0
  0
LINE
  5
F8
100
AcDbEntity
  8
0
390
0
  6
Continuous
 62
     7
100
AcDbLine
 10
-36.646735
 20
-23.105885
 30
0.0
 11
-36.6458
 21
-23.105885
 31
0.0
  0
LINE
  5
F9
100
AcDbEntity
  8
0
390
0
  6
Continuous
 62
     7
100
AcDbLine
 10
-36.6458
 20
-23.105885
 30
0.0
 11
-26.597189
 21
-23.105885
 31
0.0
  0
LINE
  5
FA
100
AcDbEntity
  8
0
390
0
  6
Continuous
 62
     7
100
AcDbLine
 10
-26.597189
 20
-23.105885
 30
0.0
 11
-26.596739
 21
-23.105885
 31
0.0
  0
LINE
  5
FB
100
AcDbEntity
  8
0
390
0
  6
Continuous
 62
     7
100
AcDbLine
 10
-26.596739
 20
-23.105885
 30
0.0
 11
-24.596739
 21
-23.105885
 31
0.0
  0
LINE
  5
FC
100
AcDbEntity
  8
0
390
0
  6
Continuous
 62
     7
100
AcDbLine
 10
25.553261
 20
-25.705885
 30
0.0
 11
25.553261
 21
-27.705885
 31
0.0
  0
LINE
  5
FD
100
AcDbEntity
  8
0
390
0
  6
Continuous
 62
     7
100
AcDbLine
 10
36.353261
 20
-27.705885
 30
0.0
 11
36.353261
 21
-25.705885
 31
0.0
  0
LINE
  5
FE
100
AcDbEntity
  8
0
390
0
  6
Continuous
 62
     7
100
AcDbLine
 10
-26.446739
 20
-56.405885
 30
0.0
 11
-26.446739
 21
-39.405885
 31
0.0
  0
LINE
  5
FF
100
AcDbEntity
  8
0
390
0
  6
Continuous
 62
     7
100
AcDbLine
 10
-35.646739
 20
-39.405885
 30
0.0
 11
-35.646739
 21
-56.405885
 31
0.0
  0
LINE
  5
100
100
AcDbEntity
  8
0
390
0
  6
Continuous
 62
     7
100
AcDbLine
 10
35.553261
 20
-56.405885
 30
0.0
 11
35.553261
 21
-39.405885
 31
0.0
  0
LINE
  5
101
100
AcDbEntity
  8
0
390
0
  6
Continuous
 62
     7
100
AcDbLine
 10
26.353261
 20
-39.405885
 30
0.0
 11
26.353261
 21
-56.405885
 31
0.0
  0
LINE
  5
102
100
AcDbEntity
  8
0
390
0
  6
Continuous
 62
     7
100
AcDbLine
 10
35.053261
 20
-31.405885
 30
0.0
 11
35.053261
 21
-27.705885
 31
0.0
  0
LINE
  5
103
100
AcDbEntity
  8
0
390
0
  6
Continuous
 62
     7
100
AcDbLine
 10
35.053261
 20
-24.205875
 30
0.0
 11
35.053261
 21
-23.105885
 31
0.0
  0
LINE
  5
104
100
AcDbEntity
  8
0
390
0
  6
Continuous
 62
     7
100
AcDbLine
 10
26.853261
 20
-23.105885
 30
0.0
 11
26.853261
 21
-24.205875
 31
0.0
  0
LINE
  5
105
100
AcDbEntity
  8
0
390
0
  6
Continuous
 62
     7
100
AcDbLine
 10
26.853261
 20
-27.705885
 30
0.0
 11
26.853261
 21
-31.405885
 31
0.0
  0
LINE
  5
106
100
AcDbEntity
  8
0
390
0
  6
Continuous
 62
     7
100
AcDbLine
 10
-26.946739
 20
-31.405885
 30
0.0
 11
-26.946739
 21
-25.705885
 31
0.0
  0
LINE
  5
107
100
AcDbEntity
  8
0
390
0
  6
Continuous
 62
     7
100
AcDbLine
 10
-26.946739
 20
-24.205885
 30
0.0
 11
-26.946739
 21
-23.105885
 31
0.0
  0
LINE
  5
108
100
AcDbEntity
  8
0
390
0
  6
Continuous
 62
     7
100
AcDbLine
 10
-35.146739
 20
-23.105885
 30
0.0
 11
-35.146739
 21
-24.205885
 31
0.0
  0
LINE
  5
109
100
AcDbEntity
  8
0
390
0
  6
Continuous
 62
     7
100
AcDbLine
 10
-35.146739
 20
-25.705885
 30
0.0
 11
-35.146739
 21
-31.405885
 31
0.0
  0
POLYLINE
  5
10A
100
AcDbEntity
  8
0
390
0
  6
Continuous
 62
     7
100
AcDb2dPolyline
 66
     1
 10
0.0
 20
0.0
 30
0.0
 40
0.1
 41
0.1
  0
VERTEX
  5
10B
100
AcDbEntity
  8
0
390
0
 62
     7
100
AcDbVertex
100
AcDb2dVertex
 10
36.553261
 20
-23.105885
 30
0.0
  0
VERTEX
  5
10C
100
AcDbEntity
  8
0
390
0
 62
     7
100
AcDbVertex
100
AcDb2dVertex
 10
36.553261
 20
0.003948
 30
0.0
 42
1.014952
  0
VERTEX
  5
10D
100
AcDbEntity
  8
0
390
0
 62
     7
100
AcDbVertex
100
AcDb2dVertex
 10
-36.646739
 20
-1.018081
 30
0.0
  0
VERTEX
  5
10E
100
AcDbEntity
  8
0
390
0
 62
     7
100
AcDbVertex
100
AcDb2dVertex
 10
-36.646739
 20
-23.105885
 30
0.0
  0
SEQEND
  5
10F
100
AcDbEntity
  8
0
390
0
  0
LINE
  5
110
100
AcDbEntity
  8
0
390
0
  6
Continuous
 62
     7
100
AcDbLine
 10
23.592045
 20
-139.43161
 30
0.0
 11
21.153295
 21
-143.655648
 31
0.0
  0
LINE
  5
111
100
AcDbEntity
  8
0
390
0
  6
Continuous
 62
     7
100
AcDbLine
 10
26.030794
 20
-135.207572
 30
0.0
 11
23.592045
 21
-139.43161
 31
0.0
  0
LINE
  5
112
100
AcDbEntity
  8
0
390
0
  6
Continuous
 62
     7
100
AcDbLine
 10
23.592045
 20
-147.93161
 30
0.0
 11
26.030794
 21
-152.155648
 31
0.0
  0
LINE
  5
113
100
AcDbEntity
  8
0
390
0
  6
Continuous
 62
     7
100
AcDbLine
 10
21.153295
 20
-143.707572
 30
0.0
 11
23.592045
 21
-147.93161
 31
0.0
  0
LINE
  5
114
100
AcDbEntity
  8
0
390
0
  6
Continuous
 62
     7
100
AcDbLine
 10
26.075761
 20
-152.18161
 30
0.0
 11
30.953261
 21
-152.18161
 31
0.0
  0
LINE
  5
115
100
AcDbEntity
  8
0
390
0
  6
Continuous
 62
     7
100
AcDbLine
 10
30.953261
 20
-152.18161
 30
0.0
 11
35.83076
 21
-152.18161
 31
0.0
  0
LINE
  5
116
100
AcDbEntity
  8
0
390
0
  6
Continuous
 62
     7
100
AcDbLine
 10
38.314477
 20
-147.93161
 30
0.0
 11
40.753226
 21
-143.707572
 31
0.0
  0
LINE
  5
117
100
AcDbEntity
  8
0
390
0
  6
Continuous
 62
     7
100
AcDbLine
 10
35.875727
 20
-152.155648
 30
0.0
 11
38.314477
 21
-147.93161
 31
0.0
  0
LINE
  5
118
100
AcDbEntity
  8
0
390
0
  6
Continuous
 62
     7
100
AcDbLine
 10
38.314477
 20
-139.43161
 30
0.0
 11
35.875727
 21
-135.207572
 31
0.0
  0
LINE
  5
119
100
AcDbEntity
  8
0
390
0
  6
Continuous
 62
     7
100
AcDbLine
 10
40.753226
 20
-143.655648
 30
0.0
 11
38.314477
 21
-139.43161
 31
0.0
  0
LINE
  5
11A
100
AcDbEntity
  8
0
390
0
  6
Continuous
 62
     7
100
AcDbLine
 10
35.83076
 20
-135.18161
 30
0.0
 11
30.953261
 21
-135.18161
 31
0.0
  0
LINE
  5
11B
100
AcDbEntity
  8
0
390
0
  6
Continuous
 62
     7
100
AcDbLine
 10
30.953261
 20
-135.18161
 30
0.0
 11
26.075761
 21
-135.18161
 31
0.0
  0
ARC
  5
11C
100
AcDbEntity
  8
0
390
0
  6
Continuous
 62
     7
100
AcDbCircle
 10
30.953261
 20
-143.68161
 30
0.0
 40
5.0
210
0.0
220
0.0
230
1.0
100
AcDbArc
 50
150.0
 51
330.0
  0
ARC
  5
11D
100
AcDbEntity
  8
0
390
0
  6
Continuous
 62
     7
100
AcDbCircle
 10
30.953261
 20
-143.68161
 30
0.0
 40
5.0
210
0.0
220
0.0
230
1.0
100
AcDbArc
 50
330.0
 51
150.0
  0
ARC
  5
11E
100
AcDbEntity
  8
0
390
0
  6
Continuous
 62
     7
100
AcDbCircle
 10
30.953261
 20
-143.68161
 30
0.0
 40
9.8
210
0.0
220
0.0
230
1.0
100
AcDbArc
 50
239.848215
 51
240.151785
  0
ARC
  5
11F
100
AcDbEntity
  8
0
390
0
  6
Continuous
 62
     7
100
AcDbCircle
 10
30.953261
 20
-143.68161
 30
0.0
 40
8.5
210
0.0
220
0.0
230
1.0
100
AcDbArc
 50
210.0
 51
270.0
  0
LINE
  5
120
100
AcDbEntity
  8
0
390
0
  6
Continuous
 62
     7
100
AcDbLine
 10
23.592045
 20
-147.93161
 30
0.0
 11
26.030794
 21
-152.155648
 31
0.0
  0
ARC
  5
121
100
AcDbEntity
  8
0
390
0
  6
Continuous
 62
     7
100
AcDbCircle
 10
30.953261
 20
-143.68161
 30
0.0
 40
9.8
210
0.0
220
0.0
230
1.0
100
AcDbArc
 50
239.848215
 51
240.151785
  0
LINE
  5
122
100
AcDbEntity
  8
0
390
0
  6
Continuous
 62
     7
100
AcDbLine
 10
26.075761
 20
-152.18161
 30
0.0
 11
30.953261
 21
-152.18161
 31
0.0
  0
ARC
  5
123
100
AcDbEntity
  8
0
390
0
  6
Continuous
 62
     7
100
AcDbCircle
 10
30.953261
 20
-143.68161
 30
0.0
 40
8.5
210
0.0
220
0.0
230
1.0
100
AcDbArc
 50
150.0
 51
210.0
  0
ARC
  5
124
100
AcDbEntity
  8
0
390
0
  6
Continuous
 62
     7
100
AcDbCircle
 10
30.953261
 20
-143.68161
 30
0.0
 40
8.5
210
0.0
220
0.0
230
1.0
100
AcDbArc
 50
90.0
 51
150.0
  0
ARC
  5
125
100
AcDbEntity
  8
0
390
0
  6
Continuous
 62
     7
100
AcDbCircle
 10
30.953261
 20
-143.68161
 30
0.0
 40
8.5
210
0.0
220
0.0
230
1.0
100
AcDbArc
 50
30.0
 51
90.0
  0
ARC
  5
126
100
AcDbEntity
  8
0
390
0
  6
Continuous
 62
     7
100
AcDbCircle
 10
30.953261
 20
-143.68161
 30
0.0
 40
8.5
210
0.0
220
0.0
230
1.0
100
AcDbArc
 50
330.0
 51
30.0
  0
ARC
  5
127
100
AcDbEntity
  8
0
390
0
  6
Continuous
 62
     7
100
AcDbCircle
 10
30.953261
 20
-143.68161
 30
0.0
 40
8.5
210
0.0
220
0.0
230
1.0
100
AcDbArc
 50
270.0
 51
330.0
  0
ARC
  5
128
100
AcDbEntity
  8
0
390
0
  6
Continuous
 62
     7
100
AcDbCircle
 10
30.953261
 20
-143.68161
 30
0.0
 40
8.5
210
0.0
220
0.0
230
1.0
100
AcDbArc
 50
210.0
 51
270.0
  0
ARC
  5
129
100
AcDbEntity
  8
0
390
0
  6
Continuous
 62
     7
100
AcDbCircle
 10
30.953261
 20
-143.68161
 30
0.0
 40
5.0
210
0.0
220
0.0
230
1.0
100
AcDbArc
 50
330.0
 51
150.0
  0
ARC
  5
12A
100
AcDbEntity
  8
0
390
0
  6
Continuous
 62
     7
100
AcDbCircle
 10
30.953261
 20
-143.68161
 30
0.0
 40
5.0
210
0.0
220
0.0
230
1.0
100
AcDbArc
 50
150.0
 51
330.0
  0
ARC
  5
12B
100
AcDbEntity
  8
0
390
0
  6
Continuous
 62
     7
100
AcDbCircle
 10
30.953261
 20
-143.68161
 30
0.0
 40
9.8
210
0.0
220
0.0
230
0.9999999999999999
100
AcDbArc
 50
119.848215
 51
120.151785
  0
ARC
  5
12C
100
AcDbEntity
  8
0
390
0
  6
Continuous
 62
     7
100
AcDbCircle
 10
30.953261
 20
-143.68161
 30
0.0
 40
9.8
210
0.0
220
0.0
230
0.9999999999999999
100
AcDbArc
 50
59.848215
 51
60.151785
  0
ARC
  5
12D
100
AcDbEntity
  8
0
390
0
  6
Continuous
 62
     7
100
AcDbCircle
 10
30.953261
 20
-143.68161
 30
0.0
 40
9.8
210
0.0
220
0.0
230
1.0
100
AcDbArc
 50
359.848215
 51
0.151785
  0
ARC
  5
12E
100
AcDbEntity
  8
0
390
0
  6
Continuous
 62
     7
100
AcDbCircle
 10
30.953261
 20
-143.68161
 30
0.0
 40
9.8
210
0.0
220
0.0
230
1.0
100
AcDbArc
 50
299.848215
 51
300.151785
  0
ARC
  5
12F
100
AcDbEntity
  8
0
390
0
  6
Continuous
 62
     7
100
AcDbCircle
 10
30.953261
 20
-143.68161
 30
0.0
 40
9.8
210
0.0
220
0.0
230
1.0
100
AcDbArc
 50
179.848215
 51
180.151785
  0
ARC
  5
130
100
AcDbEntity
  8
0
390
0
  6
Continuous
 62
     7
100
AcDbCircle
 10
30.953261
 20
-143.68161
 30
0.0
 40
8.5
210
0.0
220
0.0
230
1.0
100
AcDbArc
 50
30.0
 51
90.0
  0
LINE
  5
131
100
AcDbEntity
  8
0
390
0
  6
Continuous
 62
     7
100
AcDbLine
 10
38.314477
 20
-139.43161
 30
0.0
 11
35.875727
 21
-135.207572
 31
0.0
  0
ARC
  5
132
100
AcDbEntity
  8
0
390
0
  6
Continuous
 62
     7
100
AcDbCircle
 10
30.953261
 20
-143.68161
 30
0.0
 40
9.8
210
0.0
220
0.0
230
0.9999999999999999
100
AcDbArc
 50
59.848215
 51
60.151785
  0
LINE
  5
133
100
AcDbEntity
  8
0
390
0
  6
Continuous
 62
     7
100
AcDbLine
 10
35.83076
 20
-135.18161
 30
0.0
 11
30.953261
 21
-135.18161
 31
0.0
  0
ARC
  5
134
100
AcDbEntity
  8
0
390
0
  6
Continuous
 62
     7
100
AcDbCircle
 10
30.953261
 20
-143.68161
 30
0.0
 40
8.5
210
0.0
220
0.0
230
1.0
100
AcDbArc
 50
330.0
 51
30.0
  0
LINE
  5
135
100
AcDbEntity
  8
0
390
0
  6
Continuous
 62
     7
100
AcDbLine
 10
38.314477
 20
-147.93161
 30
0.0
 11
40.753226
 21
-143.707572
 31
0.0
  0
ARC
  5
136
100
AcDbEntity
  8
0
390
0
  6
Continuous
 62
     7
100
AcDbCircle
 10
30.953261
 20
-143.68161
 30
0.0
 40
9.8
210
0.0
220
0.0
230
1.0
100
AcDbArc
 50
359.848215
 51
0.151785
  0
LINE
  5
137
100
AcDbEntity
  8
0
390
0
  6
Continuous
 62
     7
100
AcDbLine
 10
40.753226
 20
-143.655648
 30
0.0
 11
38.314477
 21
-139.43161
 31
0.0
  0
LINE
  5
138
100
AcDbEntity
  8
0
390
0
  6
Continuous
 62
     7
100
AcDbLine
 10
30.953261
 20
-152.18161
 30
0.0
 11
35.83076
 21
-152.18161
 31
0.0
  0
ARC
  5
139
100
AcDbEntity
  8
0
390
0
  6
Continuous
 62
     7
100
AcDbCircle
 10
30.953261
 20
-143.68161
 30
0.0
 40
8.5
210
0.0
220
0.0
230
1.0
100
AcDbArc
 50
270.0
 51
330.0
  0
LINE
  5
13A
100
AcDbEntity
  8
0
390
0
  6
Continuous
 62
     7
100
AcDbLine
 10
35.875727
 20
-152.155648
 30
0.0
 11
38.314477
 21
-147.93161
 31
0.0
  0
ARC
  5
13B
100
AcDbEntity
  8
0
390
0
  6
Continuous
 62
     7
100
AcDbCircle
 10
30.953261
 20
-143.68161
 30
0.0
 40
9.8
210
0.0
220
0.0
230
1.0
100
AcDbArc
 50
299.848215
 51
300.151785
  0
LINE
  5
13C
100
AcDbEntity
  8
0
390
0
  6
Continuous
 62
     7
100
AcDbLine
 10
23.592045
 20
-139.43161
 30
0.0
 11
21.153295
 21
-143.655648
 31
0.0
  0
ARC
  5
13D
100
AcDbEntity
  8
0
390
0
  6
Continuous
 62
     7
100
AcDbCircle
 10
30.953261
 20
-143.68161
 30
0.0
 40
8.5
210
0.0
220
0.0
230
1.0
100
AcDbArc
 50
150.0
 51
210.0
  0
LINE
  5
13E
100
AcDbEntity
  8
0
390
0
  6
Continuous
 62
     7
100
AcDbLine
 10
21.153295
 20
-143.707572
 30
0.0
 11
23.592045
 21
-147.93161
 31
0.0
  0
ARC
  5
13F
100
AcDbEntity
  8
0
390
0
  6
Continuous
 62
     7
100
AcDbCircle
 10
30.953261
 20
-143.68161
 30
0.0
 40
9.8
210
0.0
220
0.0
230
1.0
100
AcDbArc
 50
179.848215
 51
180.151785
  0
ARC
  5
140
100
AcDbEntity
  8
0
390
0
  6
Continuous
 62
     7
100
AcDbCircle
 10
30.953261
 20
-143.68161
 30
0.0
 40
9.8
210
0.0
220
0.0
230
0.9999999999999999
100
AcDbArc
 50
119.848215
 51
120.151785
  0
LINE
  5
141
100
AcDbEntity
  8
0
390
0
  6
Continuous
 62
     7
100
AcDbLine
 10
26.030794
 20
-135.207572
 30
0.0
 11
23.592045
 21
-139.43161
 31
0.0
  0
ARC
  5
142
100
AcDbEntity
  8
0
390
0
  6
Continuous
 62
     7
100
AcDbCircle
 10
30.953261
 20
-143.68161
 30
0.0
 40
8.5
210
0.0
220
0.0
230
1.0
100
AcDbArc
 50
90.0
 51
150.0
  0
LINE
  5
143
100
AcDbEntity
  8
0
390
0
  6
Continuous
 62
     7
100
AcDbLine
 10
30.953261
 20
-135.18161
 30
0.0
 11
26.075761
 21
-135.18161
 31
0.0
  0
LINE
  5
144
100
AcDbEntity
  8
0
390
0
  6
Continuous
 62
     7
100
AcDbLine
 10
-35.969206
 20
-135.207572
 30
0.0
 11
-38.407955
 21
-139.43161
 31
0.0
  0
LINE
  5
145
100
AcDbEntity
  8
0
390
0
  6
Continuous
 62
     7
100
AcDbLine
 10
-38.407955
 20
-139.43161
 30
0.0
 11
-40.846705
 21
-143.655648
 31
0.0
  0
LINE
  5
146
100
AcDbEntity
  8
0
390
0
  6
Continuous
 62
     7
100
AcDbLine
 10
-38.407955
 20
-147.93161
 30
0.0
 11
-35.969206
 21
-152.155648
 31
0.0
  0
LINE
  5
147
100
AcDbEntity
  8
0
390
0
  6
Continuous
 62
     7
100
AcDbLine
 10
-40.846705
 20
-143.707572
 30
0.0
 11
-38.407955
 21
-147.93161
 31
0.0
  0
LINE
  5
148
100
AcDbEntity
  8
0
390
0
  6
Continuous
 62
     7
100
AcDbLine
 10
-35.924239
 20
-152.18161
 30
0.0
 11
-31.046739
 21
-152.18161
 31
0.0
  0
LINE
  5
149
100
AcDbEntity
  8
0
390
0
  6
Continuous
 62
     7
100
AcDbLine
 10
-31.046739
 20
-152.18161
 30
0.0
 11
-26.16924
 21
-152.18161
 31
0.0
  0
LINE
  5
14A
100
AcDbEntity
  8
0
390
0
  6
Continuous
 62
     7
100
AcDbLine
 10
-26.124273
 20
-152.155648
 30
0.0
 11
-23.685523
 21
-147.93161
 31
0.0
  0
LINE
  5
14B
100
AcDbEntity
  8
0
390
0
  6
Continuous
 62
     7
100
AcDbLine
 10
-23.685523
 20
-147.93161
 30
0.0
 11
-21.246774
 21
-143.707572
 31
0.0
  0
LINE
  5
14C
100
AcDbEntity
  8
0
390
0
  6
Continuous
 62
     7
100
AcDbLine
 10
-21.246774
 20
-143.655648
 30
0.0
 11
-23.685523
 21
-139.43161
 31
0.0
  0
LINE
  5
14D
100
AcDbEntity
  8
0
390
0
  6
Continuous
 62
     7
100
AcDbLine
 10
-23.685523
 20
-139.43161
 30
0.0
 11
-26.124273
 21
-135.207572
 31
0.0
  0
LINE
  5
14E
100
AcDbEntity
  8
0
390
0
  6
Continuous
 62
     7
100
AcDbLine
 10
-26.16924
 20
-135.18161
 30
0.0
 11
-31.046739
 21
-135.18161
 31
0.0
  0
LINE
  5
14F
100
AcDbEntity
  8
0
390
0
  6
Continuous
 62
     7
100
AcDbLine
 10
-31.046739
 20
-135.18161
 30
0.0
 11
-35.924239
 21
-135.18161
 31
0.0
  0
ARC
  5
150
100
AcDbEntity
  8
0
390
0
  6
Continuous
 62
     7
100
AcDbCircle
 10
-31.046739
 20
-143.68161
 30
0.0
 40
5.0
210
0.0
220
0.0
230
1.0
100
AcDbArc
 50
150.0
 51
330.0
  0
ARC
  5
151
100
AcDbEntity
  8
0
390
0
  6
Continuous
 62
     7
100
AcDbCircle
 10
-31.046739
 20
-143.68161
 30
0.0
 40
5.0
210
0.0
220
0.0
230
1.0
100
AcDbArc
 50
330.0
 51
150.0
  0
ARC
  5
152
100
AcDbEntity
  8
0
390
0
  6
Continuous
 62
     7
100
AcDbCircle
 10
-31.046739
 20
-143.68161
 30
0.0
 40
9.8
210
0.0
220
0.0
230
0.9999999999999999
100
AcDbArc
 50
239.848215
 51
240.151785
  0
ARC
  5
153
100
AcDbEntity
  8
0
390
0
  6
Continuous
 62
     7
100
AcDbCircle
 10
-31.046739
 20
-143.68161
 30
0.0
 40
8.5
210
0.0
220
0.0
230
1.0
100
AcDbArc
 50
210.0
 51
270.0
  0
LINE
  5
154
100
AcDbEntity
  8
0
390
0
  6
Continuous
 62
     7
100
AcDbLine
 10
-38.407955
 20
-147.93161
 30
0.0
 11
-35.969206
 21
-152.155648
 31
0.0
  0
ARC
  5
155
100
AcDbEntity
  8
0
390
0
  6
Continuous
 62
     7
100
AcDbCircle
 10
-31.046739
 20
-143.68161
 30
0.0
 40
9.8
210
0.0
220
0.0
230
0.9999999999999999
100
AcDbArc
 50
239.848215
 51
240.151785
  0
LINE
  5
156
100
AcDbEntity
  8
0
390
0
  6
Continuous
 62
     7
100
AcDbLine
 10
-35.924239
 20
-152.18161
 30
0.0
 11
-31.046739
 21
-152.18161
 31
0.0
  0
ARC
  5
157
100
AcDbEntity
  8
0
390
0
  6
Continuous
 62
     7
100
AcDbCircle
 10
-31.046739
 20
-143.68161
 30
0.0
 40
8.5
210
0.0
220
0.0
230
1.0
100
AcDbArc
 50
330.0
 51
30.0
  0
ARC
  5
158
100
AcDbEntity
  8
0
390
0
  6
Continuous
 62
     7
100
AcDbCircle
 10
-31.046326
 20
-143.680894
 30
0.0
 40
8.499284
210
0.0
220
0.0
230
1.0
100
AcDbArc
 50
29.997213
 51
90.002787
  0
ARC
  5
159
100
AcDbEntity
  8
0
390
0
  6
Continuous
 62
     7
100
AcDbCircle
 10
-31.046739
 20
-143.68161
 30
0.0
 40
8.5
210
0.0
220
0.0
230
1.0
100
AcDbArc
 50
90.0
 51
150.0
  0
ARC
  5
15A
100
AcDbEntity
  8
0
390
0
  6
Continuous
 62
     7
100
AcDbCircle
 10
-31.046739
 20
-143.68161
 30
0.0
 40
8.5
210
0.0
220
0.0
230
1.0
100
AcDbArc
 50
150.0
 51
210.0
  0
ARC
  5
15B
100
AcDbEntity
  8
0
390
0
  6
Continuous
 62
     7
100
AcDbCircle
 10
-31.047153
 20
-143.682326
 30
0.0
 40
8.499284
210
0.0
220
0.0
230
1.0
100
AcDbArc
 50
209.997213
 51
270.002787
  0
ARC
  5
15C
100
AcDbEntity
  8
0
390
0
  6
Continuous
 62
     7
100
AcDbCircle
 10
-31.046326
 20
-143.682326
 30
0.0
 40
8.499284
210
0.0
220
0.0
230
1.0
100
AcDbArc
 50
269.997213
 51
330.002787
  0
ARC
  5
15D
100
AcDbEntity
  8
0
390
0
  6
Continuous
 62
     7
100
AcDbCircle
 10
-31.046739
 20
-143.68161
 30
0.0
 40
5.0
210
0.0
220
0.0
230
1.0
100
AcDbArc
 50
330.0
 51
150.0
  0
ARC
  5
15E
100
AcDbEntity
  8
0
390
0
  6
Continuous
 62
     7
100
AcDbCircle
 10
-31.046739
 20
-143.68161
 30
0.0
 40
5.0
210
0.0
220
0.0
230
1.0
100
AcDbArc
 50
150.0
 51
330.0
  0
ARC
  5
15F
100
AcDbEntity
  8
0
390
0
  6
Continuous
 62
     7
100
AcDbCircle
 10
-31.046739
 20
-143.68161
 30
0.0
 40
9.8
210
0.0
220
0.0
230
1.0
100
AcDbArc
 50
119.848215
 51
120.151785
  0
ARC
  5
160
100
AcDbEntity
  8
0
390
0
  6
Continuous
 62
     7
100
AcDbCircle
 10
-31.046739
 20
-143.68161
 30
0.0
 40
9.8
210
0.0
220
0.0
230
0.9999999999999999
100
AcDbArc
 50
59.848215
 51
60.151785
  0
ARC
  5
161
100
AcDbEntity
  8
0
390
0
  6
Continuous
 62
     7
100
AcDbCircle
 10
-31.046739
 20
-143.68161
 30
0.0
 40
9.8
210
0.0
220
0.0
230
1.0
100
AcDbArc
 50
359.848215
 51
0.151785
  0
ARC
  5
162
100
AcDbEntity
  8
0
390
0
  6
Continuous
 62
     7
100
AcDbCircle
 10
-31.046739
 20
-143.68161
 30
0.0
 40
9.8
210
0.0
220
0.0
230
1.0
100
AcDbArc
 50
299.848215
 51
300.151785
  0
ARC
  5
163
100
AcDbEntity
  8
0
390
0
  6
Continuous
 62
     7
100
AcDbCircle
 10
-31.046739
 20
-143.68161
 30
0.0
 40
9.8
210
0.0
220
0.0
230
1.0
100
AcDbArc
 50
179.848215
 51
180.151785
  0
ARC
  5
164
100
AcDbEntity
  8
0
390
0
  6
Continuous
 62
     7
100
AcDbCircle
 10
-31.046739
 20
-143.68161
 30
0.0
 40
8.5
210
0.0
220
0.0
230
1.0
100
AcDbArc
 50
30.0
 51
90.0
  0
LINE
  5
165
100
AcDbEntity
  8
0
390
0
  6
Continuous
 62
     7
100
AcDbLine
 10
-23.685523
 20
-139.43161
 30
0.0
 11
-26.124273
 21
-135.207572
 31
0.0
  0
ARC
  5
166
100
AcDbEntity
  8
0
390
0
  6
Continuous
 62
     7
100
AcDbCircle
 10
-31.046739
 20
-143.68161
 30
0.0
 40
9.8
210
0.0
220
0.0
230
0.9999999999999999
100
AcDbArc
 50
59.848215
 51
60.151785
  0
LINE
  5
167
100
AcDbEntity
  8
0
390
0
  6
Continuous
 62
     7
100
AcDbLine
 10
-26.16924
 20
-135.18161
 30
0.0
 11
-31.046739
 21
-135.18161
 31
0.0
  0
ARC
  5
168
100
AcDbEntity
  8
0
390
0
  6
Continuous
 62
     7
100
AcDbCircle
 10
-31.046739
 20
-143.68161
 30
0.0
 40
8.5
210
0.0
220
0.0
230
1.0
100
AcDbArc
 50
330.0
 51
30.0
  0
LINE
  5
169
100
AcDbEntity
  8
0
390
0
  6
Continuous
 62
     7
100
AcDbLine
 10
-23.685523
 20
-147.93161
 30
0.0
 11
-21.246774
 21
-143.707572
 31
0.0
  0
ARC
  5
16A
100
AcDbEntity
  8
0
390
0
  6
Continuous
 62
     7
100
AcDbCircle
 10
-31.046739
 20
-143.68161
 30
0.0
 40
9.8
210
0.0
220
0.0
230
1.0
100
AcDbArc
 50
359.848215
 51
0.151785
  0
LINE
  5
16B
100
AcDbEntity
  8
0
390
0
  6
Continuous
 62
     7
100
AcDbLine
 10
-21.246774
 20
-143.655648
 30
0.0
 11
-23.685523
 21
-139.43161
 31
0.0
  0
ARC
  5
16C
100
AcDbEntity
  8
0
390
0
  6
Continuous
 62
     7
100
AcDbCircle
 10
-31.046739
 20
-143.68161
 30
0.0
 40
8.5
210
0.0
220
0.0
230
1.0
100
AcDbArc
 50
270.0
 51
330.0
  0
LINE
  5
16D
100
AcDbEntity
  8
0
390
0
  6
Continuous
 62
     7
100
AcDbLine
 10
-31.046739
 20
-152.18161
 30
0.0
 11
-26.16924
 21
-152.18161
 31
0.0
  0
ARC
  5
16E
100
AcDbEntity
  8
0
390
0
  6
Continuous
 62
     7
100
AcDbCircle
 10
-31.046739
 20
-143.68161
 30
0.0
 40
9.8
210
0.0
220
0.0
230
1.0
100
AcDbArc
 50
299.848215
 51
300.151785
  0
LINE
  5
16F
100
AcDbEntity
  8
0
390
0
  6
Continuous
 62
     7
100
AcDbLine
 10
-26.124273
 20
-152.155648
 30
0.0
 11
-23.685523
 21
-147.93161
 31
0.0
  0
LINE
  5
170
100
AcDbEntity
  8
0
390
0
  6
Continuous
 62
     7
100
AcDbLine
 10
-38.407955
 20
-139.43161
 30
0.0
 11
-40.846705
 21
-143.655648
 31
0.0
  0
ARC
  5
171
100
AcDbEntity
  8
0
390
0
  6
Continuous
 62
     7
100
AcDbCircle
 10
-31.046739
 20
-143.68161
 30
0.0
 40
8.5
210
0.0
220
0.0
230
1.0
100
AcDbArc
 50
150.0
 51
210.0
  0
LINE
  5
172
100
AcDbEntity
  8
0
390
0
  6
Continuous
 62
     7
100
AcDbLine
 10
-40.846705
 20
-143.707572
 30
0.0
 11
-38.407955
 21
-147.93161
 31
0.0
  0
ARC
  5
173
100
AcDbEntity
  8
0
390
0
  6
Continuous
 62
     7
100
AcDbCircle
 10
-31.046739
 20
-143.68161
 30
0.0
 40
9.8
210
0.0
220
0.0
230
1.0
100
AcDbArc
 50
179.848215
 51
180.151785
  0
ARC
  5
174
100
AcDbEntity
  8
0
390
0
  6
Continuous
 62
     7
100
AcDbCircle
 10
-31.046739
 20
-143.68161
 30
0.0
 40
9.8
210
0.0
220
0.0
230
1.0
100
AcDbArc
 50
119.848215
 51
120.151785
  0
LINE
  5
175
100
AcDbEntity
  8
0
390
0
  6
Continuous
 62
     7
100
AcDbLine
 10
-35.969206
 20
-135.207572
 30
0.0
 11
-38.407955
 21
-139.43161
 31
0.0
  0
ARC
  5
176
100
AcDbEntity
  8
0
390
0
  6
Continuous
 62
     7
100
AcDbCircle
 10
-31.046739
 20
-143.68161
 30
0.0
 40
8.5
210
0.0
220
0.0
230
1.0
100
AcDbArc
 50
90.0
 51
150.0
  0
LINE
  5
177
100
AcDbEntity
  8
0
390
0
  6
Continuous
 62
     7
100
AcDbLine
 10
-31.046739
 20
-135.18161
 30
0.0
 11
-35.924239
 21
-135.18161
 31
0.0
  0
LINE
  5
178
100
AcDbEntity
  8
0
390
0
  6
Continuous
 62
     7
100
AcDbLine
 10
11.403261
 20
-135.18161
 30
0.0
 11
12.403261
 21
-135.18161
 31
0.0
  0
LINE
  5
179
100
AcDbEntity
  8
0
390
0
  6
Continuous
 62
     7
100
AcDbLine
 10
11.403261
 20
-152.18161
 30
0.0
 11
12.403261
 21
-152.18161
 31
0.0
  0
LINE
  5
17A
100
AcDbEntity
  8
0
390
0
  6
Continuous
 62
     7
100
AcDbLine
 10
11.403261
 20
-152.18161
 30
0.0
 11
11.403261
 21
-135.18161
 31
0.0
  0
LINE
  5
17B
100
AcDbEntity
  8
0
390
0
  6
Continuous
 62
     7
100
AcDbLine
 10
12.403261
 20
-135.18161
 30
0.0
 11
12.403261
 21
-152.18161
 31
0.0
  0
LINE
  5
17C
100
AcDbEntity
  8
0
390
0
  6
Continuous
 62
     7
100
AcDbLine
 10
-12.496739
 20
-135.18161
 30
0.0
 11
-11.496739
 21
-135.18161
 31
0.0
  0
LINE
  5
17D
100
AcDbEntity
  8
0
390
0
  6
Continuous
 62
     7
100
AcDbLine
 10
-12.496739
 20
-152.18161
 30
0.0
 11
-11.496739
 21
-152.18161
 31
0.0
  0
LINE
  5
17E
100
AcDbEntity
  8
0
390
0
  6
Continuous
 62
     7
100
AcDbLine
 10
-11.496739
 20
-135.18161
 30
0.0
 11
-11.496739
 21
-152.18161
 31
0.0
  0
LINE
  5
17F
100
AcDbEntity
  8
0
390
0
  6
Continuous
 62
     7
100
AcDbLine
 10
-12.496739
 20
-152.18161
 30
0.0
 11
-12.496739
 21
-135.18161
 31
0.0
  0
LINE
  5
180
100
AcDbEntity
  8
0
390
0
  6
Continuous
 62
     7
100
AcDbLine
 10
35.026676
 20
-146.582704
 30
0.0
 11
35.398992
 21
-145.970582
 31
0.0
  0
ARC
  5
181
100
AcDbEntity
  8
0
390
0
  6
Continuous
 62
     7
100
AcDbCircle
 10
-33.046739
 20
-143.68161
 30
0.0
 40
12.5
210
0.0
220
0.0
230
1.0
100
AcDbArc
 50
180.0
 51
270.0
  0
LINE
  5
182
100
AcDbEntity
  8
0
390
0
  6
Continuous
 62
     7
100
AcDbLine
 10
30.95326
 20
-156.18161
 30
0.0
 11
-33.046739
 21
-156.18161
 31
0.0
  0
ARC
  5
183
100
AcDbEntity
  8
0
390
0
  6
Continuous
 62
     7
100
AcDbCircle
 10
30.953261
 20
-143.68161
 30
0.0
 40
12.5
210
0.0
220
0.0
230
1.0
100
AcDbArc
 50
270.0
 51
360.0
  0
ARC
  5
184
100
AcDbEntity
  8
0
390
0
  6
Continuous
 62
     7
100
AcDbCircle
 10
30.953261
 20
-143.68161
 30
0.0
 40
12.5
210
0.0
220
0.0
230
1.0
100
AcDbArc
 50
0.0
 51
90.0
  0
LINE
  5
185
100
AcDbEntity
  8
0
390
0
  6
Continuous
 62
     7
100
AcDbLine
 10
-33.046739
 20
-131.18161
 30
0.0
 11
30.95326
 21
-131.18161
 31
0.0
  0
ARC
  5
186
100
AcDbEntity
  8
0
390
0
  6
Continuous
 62
     7
100
AcDbCircle
 10
-33.046739
 20
-143.68161
 30
0.0
 40
12.5
210
0.0
220
0.0
230
1.0
100
AcDbArc
 50
90.0
 51
180.0
  0
LINE
  5
187
100
AcDbEntity
  8
0
390
0
  6
Continuous
 62
     7
100
AcDbLine
 10
-33.046739
 20
-131.18161
 30
0.0
 11
30.953261
 21
-131.18161
 31
0.0
  0
ARC
  5
188
100
AcDbEntity
  8
0
390
0
  6
Continuous
 62
     7
100
AcDbCircle
 10
30.953261
 20
-143.68161
 30
0.0
 40
12.5
210
0.0
220
0.0
230
1.0
100
AcDbArc
 50
0.0
 51
90.0
  0
ARC
  5
189
100
AcDbEntity
  8
0
390
0
  6
Continuous
 62
     7
100
AcDbCircle
 10
30.953261
 20
-143.68161
 30
0.0
 40
12.5
210
0.0
220
0.0
230
1.0
100
AcDbArc
 50
270.0
 51
360.0
  0
LINE
  5
18A
100
AcDbEntity
  8
0
390
0
  6
Continuous
 62
     7
100
AcDbLine
 10
30.953261
 20
-156.18161
 30
0.0
 11
-33.046739
 21
-156.18161
 31
0.0
  0
ARC
  5
18B
100
AcDbEntity
  8
0
390
0
  6
Continuous
 62
     7
100
AcDbCircle
 10
-33.046739
 20
-143.68161
 30
0.0
 40
12.5
210
0.0
220
0.0
230
1.0
100
AcDbArc
 50
180.0
 51
270.0
  0
ARC
  5
18C
100
AcDbEntity
  8
0
390
0
  6
Continuous
 62
     7
100
AcDbCircle
 10
-33.046739
 20
-143.68161
 30
0.0
 40
12.5
210
0.0
220
0.0
230
1.0
100
AcDbArc
 50
90.0
 51
180.0
  0
LINE
  5
18D
100
AcDbEntity
  8
0
390
0
  6
Continuous
 62
     7
100
AcDbLine
 10
-11.496739
 20
-152.18161
 30
0.0
 11
-11.496739
 21
-135.18161
 31
0.0
  0
LINE
  5
18E
100
AcDbEntity
  8
0
390
0
  6
Continuous
 62
     7
100
AcDbLine
 10
-11.496739
 20
-135.18161
 30
0.0
 11
-12.496739
 21
-135.18161
 31
0.0
  0
LINE
  5
18F
100
AcDbEntity
  8
0
390
0
  6
Continuous
 62
     7
100
AcDbLine
 10
-12.496739
 20
-135.18161
 30
0.0
 11
-12.496739
 21
-152.18161
 31
0.0
  0
LINE
  5
190
100
AcDbEntity
  8
0
390
0
  6
Continuous
 62
     7
100
AcDbLine
 10
-12.496739
 20
-152.18161
 30
0.0
 11
-11.496739
 21
-152.18161
 31
0.0
  0
LINE
  5
191
100
AcDbEntity
  8
0
390
0
  6
Continuous
 62
     7
100
AcDbLine
 10
12.403261
 20
-152.18161
 30
0.0
 11
12.403261
 21
-135.18161
 31
0.0
  0
LINE
  5
192
100
AcDbEntity
  8
0
390
0
  6
Continuous
 62
     7
100
AcDbLine
 10
12.403261
 20
-135.18161
 30
0.0
 11
11.403261
 21
-135.18161
 31
0.0
  0
LINE
  5
193
100
AcDbEntity
  8
0
390
0
  6
Continuous
 62
     7
100
AcDbLine
 10
11.403261
 20
-135.18161
 30
0.0
 11
11.403261
 21
-152.18161
 31
0.0
  0
LINE
  5
194
100
AcDbEntity
  8
0
390
0
  6
Continuous
 62
     7
100
AcDbLine
 10
11.403261
 20
-152.18161
 30
0.0
 11
12.403261
 21
-152.18161
 31
0.0
  0
CIRCLE
  5
195
100
AcDbEntity
  8
0
390
0
  6
Continuous
 62
     7
100
AcDbCircle
 10
-31.046739
 20
-143.685134
 30
0.0
 40
4.600001
210
0.0
220
0.0
230
1.0
  0
LINE
  5
196
100
AcDbEntity
  8
0
390
0
  6
Continuous
 62
     7
100
AcDbLine
 10
-26.446739
 20
-143.68161
 30
0.0
 11
-26.460489
 21
-144.037004
 31
0.0
  0
ARC
  5
197
100
AcDbEntity
  8
0
390
0
  6
Continuous
 62
     7
100
AcDbCircle
 10
-31.046739
 20
-143.68161
 30
0.0
 40
4.6
210
0.0
220
0.0
230
0.9999999999999999
100
AcDbArc
 50
0.0
 51
355.56894
  0
CIRCLE
  5
198
100
AcDbEntity
  8
0
390
0
  6
Continuous
 62
     7
100
AcDbCircle
 10
30.953261
 20
-143.685134
 30
0.0
 40
4.600001
210
0.0
220
0.0
230
1.0
  0
LINE
  5
199
100
AcDbEntity
  8
0
390
0
  6
Continuous
 62
     7
100
AcDbLine
 10
35.553261
 20
-143.68161
 30
0.0
 11
35.539511
 21
-144.037004
 31
0.0
  0
ARC
  5
19A
100
AcDbEntity
  8
0
390
0
  6
Continuous
 62
     7
100
AcDbCircle
 10
30.953261
 20
-143.68161
 30
0.0
 40
4.6
210
0.0
220
0.0
230
0.9999999999999999
100
AcDbArc
 50
0.0
 51
355.56894
  0
LINE
  5
19B
100
AcDbEntity
  8
0
390
0
  6
Continuous
 62
     7
100
AcDbLine
 10
163.658674
 20
-38.655329
 30
0.0
 11
163.658674
 21
-31.405885
 31
0.0
  0
LINE
  5
19C
100
AcDbEntity
  8
0
390
0
  6
Continuous
 62
     7
100
AcDbLine
 10
163.658674
 20
-39.405885
 30
0.0
 11
163.658674
 21
-38.655329
 31
0.0
  0
LINE
  5
19D
100
AcDbEntity
  8
0
390
0
  6
Continuous
 62
     7
100
AcDbLine
 10
163.632713
 20
-31.405885
 30
0.0
 11
163.632713
 21
-38.655329
 31
0.0
  0
LINE
  5
19E
100
AcDbEntity
  8
0
390
0
  6
Continuous
 62
     7
100
AcDbLine
 10
155.184636
 20
-31.405885
 30
0.0
 11
163.632713
 21
-31.405885
 31
0.0
  0
LINE
  5
19F
100
AcDbEntity
  8
0
390
0
  6
Continuous
 62
     7
100
AcDbLine
 10
155.184636
 20
-38.655329
 30
0.0
 11
155.184636
 21
-31.405885
 31
0.0
  0
ARC
  5
1A0
100
AcDbEntity
  8
0
390
0
  6
Continuous
 62
     7
100
AcDbCircle
 10
159.590003
 20
-26.123912
 30
0.0
 40
13.28321
210
0.0
220
0.0
230
1.0
100
AcDbArc
 50
250.63109
 51
269.217834
  0
ARC
  5
1A1
100
AcDbEntity
  8
0
390
0
  6
Continuous
 62
     7
100
AcDbCircle
 10
159.227508
 20
-26.124828
 30
0.0
 40
13.282292
210
0.0
220
0.0
230
1.0
100
AcDbArc
 50
270.781519
 51
289.369558
  0
LINE
  5
1A2
100
AcDbEntity
  8
0
390
0
  6
Continuous
 62
     7
100
AcDbLine
 10
155.132713
 20
-31.405885
 30
0.0
 11
155.132713
 21
-38.655329
 31
0.0
  0
LINE
  5
1A3
100
AcDbEntity
  8
0
390
0
  6
Continuous
 62
     7
100
AcDbLine
 10
146.684636
 20
-31.405885
 30
0.0
 11
155.132713
 21
-31.405885
 31
0.0
  0
LINE
  5
1A4
100
AcDbEntity
  8
0
390
0
  6
Continuous
 62
     7
100
AcDbLine
 10
146.684636
 20
-38.655329
 30
0.0
 11
146.684636
 21
-31.405885
 31
0.0
  0
ARC
  5
1A5
100
AcDbEntity
  8
0
390
0
  6
Continuous
 62
     7
100
AcDbCircle
 10
151.08958
 20
-26.12629
 30
0.0
 40
13.280827
210
0.0
220
0.0
230
1.0
100
AcDbArc
 50
250.629407
 51
269.219516
  0
ARC
  5
1A6
100
AcDbEntity
  8
0
390
0
  6
Continuous
 62
     7
100
AcDbCircle
 10
150.728087
 20
-26.128082
 30
0.0
 40
13.279031
210
0.0
220
0.0
230
1.0
100
AcDbArc
 50
270.779216
 51
289.371861
  0
LINE
  5
1A7
100
AcDbEntity
  8
0
390
0
  6
Continuous
 62
     7
100
AcDbLine
 10
146.658674
 20
-31.405885
 30
0.0
 11
146.658674
 21
-38.655329
 31
0.0
  0
LINE
  5
1A8
100
AcDbEntity
  8
0
390
0
  6
Continuous
 62
     7
100
AcDbLine
 10
146.658674
 20
-38.655329
 30
0.0
 11
146.658674
 21
-39.405885
 31
0.0
  0
LINE
  5
1A9
100
AcDbEntity
  8
0
390
0
  6
Continuous
 62
     7
100
AcDbLine
 10
163.632713
 20
-31.405885
 30
0.0
 11
155.184636
 21
-31.405885
 31
0.0
  0
LINE
  5
1AA
100
AcDbEntity
  8
0
390
0
  6
Continuous
 62
     7
100
AcDbLine
 10
155.184636
 20
-31.405885
 30
0.0
 11
155.132713
 21
-31.405885
 31
0.0
  0
LINE
  5
1AB
100
AcDbEntity
  8
0
390
0
  6
Continuous
 62
     7
100
AcDbLine
 10
155.132713
 20
-31.405885
 30
0.0
 11
146.684636
 21
-31.405885
 31
0.0
  0
LINE
  5
1AC
100
AcDbEntity
  8
0
390
0
  6
Continuous
 62
     7
100
AcDbLine
 10
163.658674
 20
-38.655329
 30
0.0
 11
163.658674
 21
-39.405885
 31
0.0
  0
LINE
  5
1AD
100
AcDbEntity
  8
0
390
0
  6
Continuous
 62
     7
100
AcDbLine
 10
146.658674
 20
-39.405885
 30
0.0
 11
150.908674
 21
-39.405885
 31
0.0
  0
LINE
  5
1AE
100
AcDbEntity
  8
0
390
0
  6
Continuous
 62
     7
100
AcDbLine
 10
150.908674
 20
-39.405885
 30
0.0
 11
159.408674
 21
-39.405885
 31
0.0
  0
LINE
  5
1AF
100
AcDbEntity
  8
0
390
0
  6
Continuous
 62
     7
100
AcDbLine
 10
159.408674
 20
-39.405885
 30
0.0
 11
163.658674
 21
-39.405885
 31
0.0
  0
LINE
  5
1B0
100
AcDbEntity
  8
0
390
0
  6
Continuous
 62
     7
100
AcDbLine
 10
146.658674
 20
-31.405885
 30
0.0
 11
146.658674
 21
-38.655329
 31
0.0
  0
LINE
  5
1B1
100
AcDbEntity
  8
0
390
0
  6
Continuous
 62
     7
100
AcDbLine
 10
146.684636
 20
-31.405885
 30
0.0
 11
146.658674
 21
-31.405885
 31
0.0
  0
LINE
  5
1B2
100
AcDbEntity
  8
0
390
0
  6
Continuous
 62
     7
100
AcDbLine
 10
146.684636
 20
-38.655329
 30
0.0
 11
146.684636
 21
-31.405885
 31
0.0
  0
LINE
  5
1B3
100
AcDbEntity
  8
0
390
0
  6
Continuous
 62
     7
100
AcDbLine
 10
146.658674
 20
-38.655329
 30
0.0
 11
146.684636
 21
-38.655329
 31
0.0
  0
LINE
  5
1B4
100
AcDbEntity
  8
0
390
0
  6
Continuous
 62
     7
100
AcDbLine
 10
155.132713
 20
-31.405885
 30
0.0
 11
155.132713
 21
-38.655329
 31
0.0
  0
LINE
  5
1B5
100
AcDbEntity
  8
0
390
0
  6
Continuous
 62
     7
100
AcDbLine
 10
155.184636
 20
-31.405885
 30
0.0
 11
155.132713
 21
-31.405885
 31
0.0
  0
LINE
  5
1B6
100
AcDbEntity
  8
0
390
0
  6
Continuous
 62
     7
100
AcDbLine
 10
155.184636
 20
-38.655329
 30
0.0
 11
155.184636
 21
-31.405885
 31
0.0
  0
LINE
  5
1B7
100
AcDbEntity
  8
0
390
0
  6
Continuous
 62
     7
100
AcDbLine
 10
155.132713
 20
-38.655329
 30
0.0
 11
155.184636
 21
-38.655329
 31
0.0
  0
LINE
  5
1B8
100
AcDbEntity
  8
0
390
0
  6
Continuous
 62
     7
100
AcDbLine
 10
163.632713
 20
-31.405885
 30
0.0
 11
163.632713
 21
-38.655329
 31
0.0
  0
LINE
  5
1B9
100
AcDbEntity
  8
0
390
0
  6
Continuous
 62
     7
100
AcDbLine
 10
163.658674
 20
-31.405885
 30
0.0
 11
163.632713
 21
-31.405885
 31
0.0
  0
LINE
  5
1BA
100
AcDbEntity
  8
0
390
0
  6
Continuous
 62
     7
100
AcDbLine
 10
163.658674
 20
-38.655329
 30
0.0
 11
163.658674
 21
-31.405885
 31
0.0
  0
LINE
  5
1BB
100
AcDbEntity
  8
0
390
0
  6
Continuous
 62
     7
100
AcDbLine
 10
163.632713
 20
-38.655329
 30
0.0
 11
163.658674
 21
-38.655329
 31
0.0
  0
ARC
  5
1BC
100
AcDbEntity
  8
0
390
0
  6
Continuous
 62
     7
100
AcDbCircle
 10
151.08958
 20
-26.12629
 30
0.0
 40
13.280827
210
0.0
220
0.0
230
1.0
100
AcDbArc
 50
250.629407
 51
269.219516
  0
LINE
  5
1BD
100
AcDbEntity
  8
0
390
0
  6
Continuous
 62
     7
100
AcDbLine
 10
146.658674
 20
-39.405885
 30
0.0
 11
150.908674
 21
-39.405885
 31
0.0
  0
LINE
  5
1BE
100
AcDbEntity
  8
0
390
0
  6
Continuous
 62
     7
100
AcDbLine
 10
146.658674
 20
-38.655329
 30
0.0
 11
146.658674
 21
-39.405885
 31
0.0
  0
LINE
  5
1BF
100
AcDbEntity
  8
0
390
0
  6
Continuous
 62
     7
100
AcDbLine
 10
146.684636
 20
-38.655329
 30
0.0
 11
146.658674
 21
-38.655329
 31
0.0
  0
LINE
  5
1C0
100
AcDbEntity
  8
0
390
0
  6
Continuous
 62
     7
100
AcDbLine
 10
150.908674
 20
-39.405885
 30
0.0
 11
159.408674
 21
-39.405885
 31
0.0
  0
ARC
  5
1C1
100
AcDbEntity
  8
0
390
0
  6
Continuous
 62
     7
100
AcDbCircle
 10
159.590003
 20
-26.123912
 30
0.0
 40
13.28321
210
0.0
220
0.0
230
1.0
100
AcDbArc
 50
250.63109
 51
269.217834
  0
LINE
  5
1C2
100
AcDbEntity
  8
0
390
0
  6
Continuous
 62
     7
100
AcDbLine
 10
155.184636
 20
-38.655329
 30
0.0
 11
155.132713
 21
-38.655329
 31
0.0
  0
ARC
  5
1C3
100
AcDbEntity
  8
0
390
0
  6
Continuous
 62
     7
100
AcDbCircle
 10
150.728087
 20
-26.128082
 30
0.0
 40
13.279031
210
0.0
220
0.0
230
1.0
100
AcDbArc
 50
270.779216
 51
289.371861
  0
LINE
  5
1C4
100
AcDbEntity
  8
0
390
0
  6
Continuous
 62
     7
100
AcDbLine
 10
163.658674
 20
-39.405885
 30
0.0
 11
163.658674
 21
-38.655329
 31
0.0
  0
LINE
  5
1C5
100
AcDbEntity
  8
0
390
0
  6
Continuous
 62
     7
100
AcDbLine
 10
159.408674
 20
-39.405885
 30
0.0
 11
163.658674
 21
-39.405885
 31
0.0
  0
ARC
  5
1C6
100
AcDbEntity
  8
0
390
0
  6
Continuous
 62
     7
100
AcDbCircle
 10
159.227508
 20
-26.124828
 30
0.0
 40
13.282292
210
0.0
220
0.0
230
1.0
100
AcDbArc
 50
270.781519
 51
289.369558
  0
LINE
  5
1C7
100
AcDbEntity
  8
0
390
0
  6
Continuous
 62
     7
100
AcDbLine
 10
163.658674
 20
-38.655329
 30
0.0
 11
163.632713
 21
-38.655329
 31
0.0
  0
LINE
  5
1C8
100
AcDbEntity
  8
0
390
0
  6
Continuous
 62
     7
100
AcDbLine
 10
146.658674
 20
-39.405885
 30
0.0
 11
146.658674
 21
-38.655329
 31
0.0
  0
LINE
  5
1C9
100
AcDbEntity
  8
0
390
0
  6
Continuous
 62
     7
100
AcDbLine
 10
145.158674
 20
-24.205885
 30
0.0
 11
145.158674
 21
-23.105885
 31
0.0
  0
LINE
  5
1CA
100
AcDbEntity
  8
0
390
0
  6
Continuous
 62
     7
100
AcDbLine
 10
165.158674
 20
-24.205885
 30
0.0
 11
165.158674
 21
-23.105885
 31
0.0
  0
LINE
  5
1CB
100
AcDbEntity
  8
0
390
0
  6
Continuous
 62
     7
100
AcDbLine
 10
165.158674
 20
-24.205884
 30
0.0
 11
165.158674
 21
-23.105885
 31
0.0
  0
LINE
  5
1CC
100
AcDbEntity
  8
0
390
0
  6
Continuous
 62
     7
100
AcDbLine
 10
145.158674
 20
-23.105885
 30
0.0
 11
145.158674
 21
-24.205884
 31
0.0
  0
LINE
  5
1CD
100
AcDbEntity
  8
0
390
0
  6
Continuous
 62
     7
100
AcDbLine
 10
149.758674
 20
-27.705885
 30
0.0
 11
150.057562
 21
-27.705885
 31
0.0
  0
LINE
  5
1CE
100
AcDbEntity
  8
0
390
0
  6
Continuous
 62
     7
100
AcDbLine
 10
150.057562
 20
-27.705885
 30
0.0
 11
155.158674
 21
-27.705885
 31
0.0
  0
LINE
  5
1CF
100
AcDbEntity
  8
0
390
0
  6
Continuous
 62
     7
100
AcDbLine
 10
155.158674
 20
-27.705885
 30
0.0
 11
160.259775
 21
-27.705885
 31
0.0
  0
LINE
  5
1D0
100
AcDbEntity
  8
0
390
0
  6
Continuous
 62
     7
100
AcDbLine
 10
160.259775
 20
-27.705885
 30
0.0
 11
160.558674
 21
-27.705885
 31
0.0
  0
LINE
  5
1D1
100
AcDbEntity
  8
0
390
0
  6
Continuous
 62
     7
100
AcDbLine
 10
149.758674
 20
-27.705885
 30
0.0
 11
155.158674
 21
-27.705885
 31
0.0
  0
LINE
  5
1D2
100
AcDbEntity
  8
0
390
0
  6
Continuous
 62
     7
100
AcDbLine
 10
155.158674
 20
-27.705885
 30
0.0
 11
160.558674
 21
-27.705885
 31
0.0
  0
LINE
  5
1D3
100
AcDbEntity
  8
0
390
0
  6
Continuous
 62
     7
100
AcDbLine
 10
167.658674
 20
-24.205885
 30
0.0
 11
167.658674
 21
-25.705884
 31
0.0
  0
LINE
  5
1D4
100
AcDbEntity
  8
0
390
0
  6
Continuous
 62
     7
100
AcDbLine
 10
155.158674
 20
-24.205885
 30
0.0
 11
155.158674
 21
-25.705885
 31
0.0
  0
LINE
  5
1D5
100
AcDbEntity
  8
0
390
0
  6
Continuous
 62
     7
100
AcDbLine
 10
167.658674
 20
-24.205885
 30
0.0
 11
155.158674
 21
-24.205885
 31
0.0
  0
LINE
  5
1D6
100
AcDbEntity
  8
0
390
0
  6
Continuous
 62
     7
100
AcDbLine
 10
167.658674
 20
-25.705885
 30
0.0
 11
167.658674
 21
-24.205885
 31
0.0
  0
LINE
  5
1D7
100
AcDbEntity
  8
0
390
0
  6
Continuous
 62
     7
100
AcDbLine
 10
155.158674
 20
-25.705885
 30
0.0
 11
167.658674
 21
-25.705885
 31
0.0
  0
LINE
  5
1D8
100
AcDbEntity
  8
0
390
0
  6
Continuous
 62
     7
100
AcDbLine
 10
142.658674
 20
-24.205885
 30
0.0
 11
142.658674
 21
-25.705885
 31
0.0
  0
LINE
  5
1D9
100
AcDbEntity
  8
0
390
0
  6
Continuous
 62
     7
100
AcDbLine
 10
155.158674
 20
-24.205885
 30
0.0
 11
142.658674
 21
-24.205885
 31
0.0
  0
LINE
  5
1DA
100
AcDbEntity
  8
0
390
0
  6
Continuous
 62
     7
100
AcDbLine
 10
155.158674
 20
-25.705885
 30
0.0
 11
155.158674
 21
-24.205885
 31
0.0
  0
LINE
  5
1DB
100
AcDbEntity
  8
0
390
0
  6
Continuous
 62
     7
100
AcDbLine
 10
142.658674
 20
-25.705885
 30
0.0
 11
155.158674
 21
-25.705885
 31
0.0
  0
LINE
  5
1DC
100
AcDbEntity
  8
0
390
0
  6
Continuous
 62
     7
100
AcDbLine
 10
142.658674
 20
-25.705884
 30
0.0
 11
142.658674
 21
-24.205885
 31
0.0
  0
LINE
  5
1DD
100
AcDbEntity
  8
0
390
0
  6
Continuous
 62
     7
100
AcDbLine
 10
155.158674
 20
-24.205885
 30
0.0
 11
167.658674
 21
-24.205885
 31
0.0
  0
LINE
  5
1DE
100
AcDbEntity
  8
0
390
0
  6
Continuous
 62
     7
100
AcDbLine
 10
142.658674
 20
-24.205885
 30
0.0
 11
145.156803
 21
-24.205885
 31
0.0
  0
LINE
  5
1DF
100
AcDbEntity
  8
0
390
0
  6
Continuous
 62
     7
100
AcDbLine
 10
145.156803
 20
-24.205885
 30
0.0
 11
155.158674
 21
-24.205885
 31
0.0
  0
LINE
  5
1E0
100
AcDbEntity
  8
0
390
0
  6
Continuous
 62
     7
100
AcDbLine
 10
155.158674
 20
-25.705885
 30
0.0
 11
163.658638
 21
-25.705885
 31
0.0
  0
LINE
  5
1E1
100
AcDbEntity
  8
0
390
0
  6
Continuous
 62
     7
100
AcDbLine
 10
163.658638
 20
-25.705885
 30
0.0
 11
167.658674
 21
-25.705885
 31
0.0
  0
LINE
  5
1E2
100
AcDbEntity
  8
0
390
0
  6
Continuous
 62
     7
100
AcDbLine
 10
142.658674
 20
-25.705885
 30
0.0
 11
146.657702
 21
-25.705885
 31
0.0
  0
LINE
  5
1E3
100
AcDbEntity
  8
0
390
0
  6
Continuous
 62
     7
100
AcDbLine
 10
146.657702
 20
-25.705885
 30
0.0
 11
155.158674
 21
-25.705885
 31
0.0
  0
LINE
  5
1E4
100
AcDbEntity
  8
0
390
0
  6
Continuous
 62
     7
100
AcDbLine
 10
159.758674
 20
-56.405885
 30
0.0
 11
155.158674
 21
-56.405885
 31
0.0
  0
LINE
  5
1E5
100
AcDbEntity
  8
0
390
0
  6
Continuous
 62
     7
100
AcDbLine
 10
159.758674
 20
-56.405885
 30
0.0
 11
155.158674
 21
-56.405885
 31
0.0
  0
LINE
  5
1E6
100
AcDbEntity
  8
0
390
0
  6
Continuous
 62
     7
100
AcDbLine
 10
155.158674
 20
-56.405885
 30
0.0
 11
150.558674
 21
-56.405885
 31
0.0
  0
LINE
  5
1E7
100
AcDbEntity
  8
0
390
0
  6
Continuous
 62
     7
100
AcDbLine
 10
150.558674
 20
-56.405885
 30
0.0
 11
155.158674
 21
-56.405885
 31
0.0
  0
LINE
  5
1E8
100
AcDbEntity
  8
0
390
0
  6
Continuous
 62
     7
100
AcDbLine
 10
155.158674
 20
-56.405885
 30
0.0
 11
159.758674
 21
-56.405885
 31
0.0
  0
LINE
  5
1E9
100
AcDbEntity
  8
0
390
0
  6
Continuous
 62
     7
100
AcDbLine
 10
159.259996
 20
-23.105885
 30
0.0
 11
159.15741
 21
-23.105885
 31
0.0
  0
LINE
  5
1EA
100
AcDbEntity
  8
0
390
0
  6
Continuous
 62
     7
100
AcDbLine
 10
167.658674
 20
26.594115
 30
0.0
 11
167.658674
 21
-23.105885
 31
0.0
  0
LINE
  5
1EB
100
AcDbEntity
  8
0
390
0
  6
Continuous
 62
     7
100
AcDbLine
 10
142.658674
 20
-23.105885
 30
0.0
 11
142.658674
 21
26.594115
 31
0.0
  0
LINE
  5
1EC
100
AcDbEntity
  8
0
390
0
  6
Continuous
 62
     7
100
AcDbLine
 10
167.658674
 20
-23.105885
 30
0.0
 11
160.827736
 21
-23.105885
 31
0.0
  0
LINE
  5
1ED
100
AcDbEntity
  8
0
390
0
  6
Continuous
 62
     7
100
AcDbLine
 10
160.827736
 20
-23.105885
 30
0.0
 11
160.758674
 21
-23.105885
 31
0.0
  0
LINE
  5
1EE
100
AcDbEntity
  8
0
390
0
  6
Continuous
 62
     7
100
AcDbLine
 10
160.758674
 20
-23.105885
 30
0.0
 11
159.255318
 21
-23.105885
 31
0.0
  0
LINE
  5
1EF
100
AcDbEntity
  8
0
390
0
  6
Continuous
 62
     7
100
AcDbLine
 10
159.255318
 20
-23.105885
 30
0.0
 11
151.062397
 21
-23.105885
 31
0.0
  0
LINE
  5
1F0
100
AcDbEntity
  8
0
390
0
  6
Continuous
 62
     7
100
AcDbLine
 10
151.062397
 20
-23.105885
 30
0.0
 11
149.558674
 21
-23.105885
 31
0.0
  0
LINE
  5
1F1
100
AcDbEntity
  8
0
390
0
  6
Continuous
 62
     7
100
AcDbLine
 10
149.558674
 20
-23.105885
 30
0.0
 11
142.658674
 21
-23.105885
 31
0.0
  0
LINE
  5
1F2
100
AcDbEntity
  8
0
390
0
  6
Continuous
 62
     7
100
AcDbLine
 10
142.658674
 20
-23.105885
 30
0.0
 11
149.463965
 21
-23.105885
 31
0.0
  0
LINE
  5
1F3
100
AcDbEntity
  8
0
390
0
  6
Continuous
 62
     7
100
AcDbLine
 10
149.463965
 20
-23.105885
 30
0.0
 11
149.527677
 21
-23.105885
 31
0.0
  0
LINE
  5
1F4
100
AcDbEntity
  8
0
390
0
  6
Continuous
 62
     7
100
AcDbLine
 10
149.527677
 20
-23.105885
 30
0.0
 11
151.062302
 21
-23.105885
 31
0.0
  0
LINE
  5
1F5
100
AcDbEntity
  8
0
390
0
  6
Continuous
 62
     7
100
AcDbLine
 10
151.062302
 20
-23.105885
 30
0.0
 11
159.254404
 21
-23.105885
 31
0.0
  0
LINE
  5
1F6
100
AcDbEntity
  8
0
390
0
  6
Continuous
 62
     7
100
AcDbLine
 10
159.254404
 20
-23.105885
 30
0.0
 11
160.758674
 21
-23.105885
 31
0.0
  0
LINE
  5
1F7
100
AcDbEntity
  8
0
390
0
  6
Continuous
 62
     7
100
AcDbLine
 10
160.910302
 20
-23.105885
 30
0.0
 11
167.658674
 21
-23.105885
 31
0.0
  0
LINE
  5
1F8
100
AcDbEntity
  8
0
390
0
  6
Continuous
 62
     7
100
AcDbLine
 10
167.658674
 20
-23.105885
 30
0.0
 11
167.658674
 21
26.594115
 31
0.0
  0
LINE
  5
1F9
100
AcDbEntity
  8
0
390
0
  6
Continuous
 62
     7
100
AcDbLine
 10
142.658674
 20
-23.105885
 30
0.0
 11
142.658674
 21
26.594115
 31
0.0
  0
LINE
  5
1FA
100
AcDbEntity
  8
0
390
0
  6
Continuous
 62
     7
100
AcDbLine
 10
149.758674
 20
-25.705885
 30
0.0
 11
149.758674
 21
-27.705885
 31
0.0
  0
LINE
  5
1FB
100
AcDbEntity
  8
0
390
0
  6
Continuous
 62
     7
100
AcDbLine
 10
160.558674
 20
-27.705885
 30
0.0
 11
160.558674
 21
-25.705885
 31
0.0
  0
LINE
  5
1FC
100
AcDbEntity
  8
0
390
0
  6
Continuous
 62
     7
100
AcDbLine
 10
159.758674
 20
-56.405885
 30
0.0
 11
159.758674
 21
-39.405885
 31
0.0
  0
LINE
  5
1FD
100
AcDbEntity
  8
0
390
0
  6
Continuous
 62
     7
100
AcDbLine
 10
150.558674
 20
-39.405885
 30
0.0
 11
150.558674
 21
-56.405885
 31
0.0
  0
LINE
  5
1FE
100
AcDbEntity
  8
0
390
0
  6
Continuous
 62
     7
100
AcDbLine
 10
159.258674
 20
-31.405885
 30
0.0
 11
159.258674
 21
-27.705885
 31
0.0
  0
LINE
  5
1FF
100
AcDbEntity
  8
0
390
0
  6
Continuous
 62
     7
100
AcDbLine
 10
159.258674
 20
-24.205875
 30
0.0
 11
159.258674
 21
-23.105885
 31
0.0
  0
LINE
  5
200
100
AcDbEntity
  8
0
390
0
  6
Continuous
 62
     7
100
AcDbLine
 10
151.058674
 20
-23.105885
 30
0.0
 11
151.058674
 21
-24.205875
 31
0.0
  0
LINE
  5
201
100
AcDbEntity
  8
0
390
0
  6
Continuous
 62
     7
100
AcDbLine
 10
151.058674
 20
-27.705885
 30
0.0
 11
151.058674
 21
-31.405885
 31
0.0
  0
POINT
  5
202
100
AcDbEntity
  8
0
390
0
 62
     7
100
AcDbPoint
 10
0.0
 20
0.0
 30
0.0
  0
LINE
  5
203
100
AcDbEntity
  8
0
390
0
  6
Continuous
 62
     7
100
AcDbLine
 10
142.658674
 20
26.594115
 30
0.0
 11
147.558674
 21
26.594115
 31
0.0
  0
ARC
  5
204
100
AcDbEntity
  8
0
390
0
  6
Continuous
 62
     7
100
AcDbCircle
 10
147.558675
 20
28.594114
 30
0.0
 40
1.999999
210
0.0
220
0.0
230
1.0
100
AcDbArc
 50
269.999957
 51
0.000043
  0
LINE
  5
205
100
AcDbEntity
  8
0
390
0
  6
Continuous
 62
     7
100
AcDbLine
 10
149.558674
 20
-23.105885
 30
0.0
 11
149.558674
 21
31.043745
 31
0.0
  0
ARC
  5
206
100
AcDbEntity
  8
0
390
0
  6
Continuous
 62
     7
100
AcDbCircle
 10
155.158674
 20
31.043745
 30
0.0
 40
5.6
210
0.0
220
0.0
230
1.0
100
AcDbArc
 50
360.0
 51
180.0
  0
LINE
  5
207
100
AcDbEntity
  8
0
390
0
  6
Continuous
 62
     7
100
AcDbLine
 10
160.758674
 20
31.043745
 30
0.0
 11
160.758674
 21
-23.105885
 31
0.0
  0
ARC
  5
208
100
AcDbEntity
  8
0
390
0
  6
Continuous
 62
     7
100
AcDbCircle
 10
162.758673
 20
28.594114
 30
0.0
 40
1.999999
210
0.0
220
0.0
230
1.0
100
AcDbArc
 50
179.999957
 51
270.000043
  0
LINE
  5
209
100
AcDbEntity
  8
0
390
0
  6
Continuous
 62
     7
100
AcDbLine
 10
162.758674
 20
26.594115
 30
0.0
 11
167.658674
 21
26.594115
 31
0.0
  0
ENDSEC
  0
SECTION
  2
OBJECTS
  0
DICTIONARY
  5
19
100
AcDbDictionary
280
     0
281
     1
  3
ACAD_GROUP
350
1A
  3
ACAD_MLINESTYLE
350
1B
  3
ACAD_LAYOUT
350
1E
  3
ACAD_PLOTSETTINGS
350
22
  3
ACAD_PLOTSTYLENAME
350
1F
  3
ACAD_WIPEOUT_VARS
350
23
  0
DICTIONARY
  5
1A
102
{ACAD_REACTORS
330
19
102
}
100
AcDbDictionary
280
     0
281
     1
  0
DICTIONARY
  5
1B
102
{ACAD_REACTORS
330
19
102
}
100
AcDbDictionary
280
     0
281
     1
  3
Standard
350
1C
  0
MLINESTYLE
  5
1C
102
{ACAD_REACTORS
330
1B
102
}
100
AcDbMlineStyle
  2
Standard
 70
     0
  3

 62
     0
 51
90.0
 52
90.0
 71
     2
 49
0.5
 62
   256
  6
ByLayer
 49
-0.5
 62
   256
  6
ByLayer
  0
ACDBDICTIONARYWDFLT
  5
1F
102
{ACAD_REACTORS
330
19
102
}
100
AcDbDictionary
281
     1
  3
Normal
350
1D
100
AcDbDictionaryWithDefault
340
1D
  0
ACDBPLACEHOLDER
  5
1D
102
{ACAD_REACTORS
330
1F
102
}
  0
LAYOUT
  5
20
102
{ACAD_REACTORS
330
1E
102
}
100
AcDbPlotSettings
  1

  2

  4

  6

 40
0.0
 41
0.0
 42
0.0
 43
0.0
 44
0.0
 45
0.0
 46
0.0
 47
0.0
 48
0.0
 49
0.0
140
0.0
141
0.0
142
1.0
143
1.0
 70
  1024
 72
     0
 73
     0
 74
     0
  7

 75
     0
147
1.0
148
0.0
149
0.0
100
AcDbLayout
  1
Model
 70
     0
 71
     1
 10
0.0
 20
0.0
 11
0.0
 21
0.0
 12
0.0
 22
0.0
 32
0.0
 14
0.0
 24
0.0
 34
0.0
 15
0.0
 25
0.0
 35
0.0
146
0.0
 13
0.0
 23
0.0
 33
0.0
 16
0.0
 26
0.0
 36
0.0
 17
0.0
 27
0.0
 37
0.0
 76
     0
330
A
331
0
345
0
346
0
  0
LAYOUT
  5
21
102
{ACAD_REACTORS
330
1E
102
}
100
AcDbPlotSettings
  1

  2

  4

  6

 40
0.0
 41
0.0
 42
0.0
 43
0.0
 44
0.0
 45
0.0
 46
0.0
 47
0.0
 48
0.0
 49
0.0
140
0.0
141
0.0
142
1.0
143
1.0
 70
     0
 72
     0
 73
     0
 74
     0
  7

 75
     0
147
1.0
148
0.0
149
0.0
100
AcDbLayout
  1
Layout1
 70
     0
 71
     2
 10
0.0
 20
0.0
 11
0.0
 21
0.0
 12
0.0
 22
0.0
 32
0.0
 14
0.0
 24
0.0
 34
0.0
 15
0.0
 25
0.0
 35
0.0
146
0.0
 13
0.0
 23
0.0
 33
0.0
 16
0.0
 26
0.0
 36
0.0
 17
0.0
 27
0.0
 37
0.0
 76
     0
330
B
331
0
345
0
346
0
  0
DICTIONARY
  5
1E
102
{ACAD_REACTORS
330
19
102
}
100
AcDbDictionary
280
     0
281
     1
  3
Layout1
350
21
  3
Model
350
20
  0
DICTIONARY
  5
22
102
{ACAD_REACTORS
330
19
102
}
100
AcDbDictionary
280
     0
281
     1
  0
WIPEOUTVARIABLES
  5
23
100
AcDbWipeoutVariables
 70
     1
  0
ENDSEC
  0
EOF
