  0
SECTION
  2
HEADER
  9
$ACADVER
  1
AC1015
  9
$ACADMAINTVER
 70
     6
  9
$DWGCODEPAGE
  3
DOS932
  9
$INSBASE
 10
0.0
 20
0.0
 30
0.0
  9
$EXTMIN
 10
-195.0
 20
-440.076177
 30
0.0
  9
$EXTMAX
 10
538.519989
 20
180.59731
 30
9.906
  9
$LIMMIN
 10
-195.0
 20
-440.076177
  9
$LIMMAX
 10
538.519989
 20
180.59731
  9
$ORTHOMODE
 70
     0
  9
$REGENMODE
 70
     1
  9
$FILLMODE
 70
     1
  9
$QTEXTMODE
 70
     0
  9
$MIRRTEXT
 70
     1
  9
$LTSCALE
 40
10.0
  9
$ATTMODE
 70
     1
  9
$TEXTSIZE
 40
0.2
  9
$TRACEWID
 40
0.05
  9
$TEXTSTYLE
  7
Standard
  9
$CLAYER
  8
0
  9
$CELTYPE
  6
Continuous
  9
$CECOLOR
 62
   256
  9
$CELTSCALE
 40
1.0
  9
$DISPSILH
 70
     0
  9
$DIMSCALE
 40
1.0
  9
$DIMASZ
 40
1.40208
  9
$DIMEXO
 40
1.40208
  9
$DIMDLI
 40
0.38
  9
$DIMRND
 40
0.0
  9
$DIMDLE
 40
0.0
  9
$DIMEXE
 40
1.05156
  9
$DIMTP
 40
0.0
  9
$DIMTM
 40
0.0
  9
$DIMTXT
 40
3.5052
  9
$DIMCEN
 40
0.09
  9
$DIMTSZ
 40
0.0
  9
$DIMTOL
 70
     0
  9
$DIMLIM
 70
     0
  9
$DIMTIH
 70
     0
  9
$DIMTOH
 70
     0
  9
$DIMSE1
 70
     0
  9
$DIMSE2
 70
     0
  9
$DIMTAD
 70
     1
  9
$DIMZIN
 70
     0
  9
$DIMBLK
  1

  9
$DIMASO
 70
     1
  9
$DIMSHO
 70
     1
  9
$DIMPOST
  1

  9
$DIMAPOST
  1

  9
$DIMALT
 70
     0
  9
$DIMALTD
 70
     2
  9
$DIMALTF
 40
25.4
  9
$DIMLFAC
 40
1.0
  9
$DIMTOFL
 70
     0
  9
$DIMTVP
 40
0.0
  9
$DIMTIX
 70
     0
  9
$DIMSOXD
 70
     0
  9
$DIMSAH
 70
     0
  9
$DIMBLK1
  1

  9
$DIMBLK2
  1

  9
$DIMSTYLE
  2
Standard
  9
$DIMCLRD
 70
     7
  9
$DIMCLRE
 70
     7
  9
$DIMCLRT
 70
     7
  9
$DIMTFAC
 40
0.5
  9
$DIMGAP
 40
1.7526
  9
$DIMJUST
 70
     0
  9
$DIMSD1
 70
     0
  9
$DIMSD2
 70
     0
  9
$DIMTOLJ
 70
     1
  9
$DIMTZIN
 70
     0
  9
$DIMALTZ
 70
     0
  9
$DIMALTTZ
 70
     0
  9
$DIMUPT
 70
     0
  9
$DIMDEC
 70
     2
  9
$DIMTDEC
 70
     4
  9
$DIMALTU
 70
     2
  9
$DIMALTTD
 70
     2
  9
$DIMTXSTY
  7
Standard
  9
$DIMAUNIT
 70
     0
  9
$DIMADEC
 70
     0
  9
$DIMALTRND
 40
0.0
  9
$DIMAZIN
 70
     0
  9
$DIMDSEP
 70
     0
  9
$DIMATFIT
 70
     3
  9
$DIMFRAC
 70
     0
  9
$DIMLDRBLK
  1

  9
$DIMLUNIT
 70
     2
  9
$DIMLWD
 70
     0
  9
$DIMLWE
 70
     0
  9
$DIMTMOVE
 70
     0
  9
$LUNITS
 70
     2
  9
$LUPREC
 70
     4
  9
$SKETCHINC
 40
0.1
  9
$FILLETRAD
 40
0.0
  9
$AUNITS
 70
     0
  9
$AUPREC
 70
     0
  9
$MENU
  1
acad
  9
$ELEVATION
 40
0.0
  9
$PELEVATION
 40
0.0
  9
$THICKNESS
 40
0.0
  9
$LIMCHECK
 70
     0
  9
$CHAMFERA
 40
0.0
  9
$CHAMFERB
 40
0.0
  9
$CHAMFERC
 40
0.0
  9
$CHAMFERD
 40
0.0
  9
$SKPOLY
 70
     0
  9
$TDCREATE
 40
2459745.695173611
  9
$TDUCREATE
 40
0.000000000
  9
$TDUPDATE
 40
2459745.320150463
  9
$TDUUPDATE
 40
0.000000000
  9
$TDINDWG
 40
0.0000000000
  9
$TDUSRTIMER
 40
0.0000000000
  9
$USRTIMER
 70
     1
  9
$ANGBASE
 50
0.0
  9
$ANGDIR
 70
     0
  9
$PDMODE
 70
     0
  9
$PDSIZE
 40
0.0
  9
$PLINEWID
 40
0.0
  9
$SPLFRAME
 70
     0
  9
$SPLINETYPE
 70
     6
  9
$SPLINESEGS
 70
     8
  9
$HANDSEED
  5
1D6
  9
$SURFTAB1
 70
     6
  9
$SURFTAB2
 70
     6
  9
$SURFTYPE
 70
     6
  9
$SURFU
 70
     6
  9
$SURFV
 70
     6
  9
$UCSBASE
  2

  9
$UCSNAME
  2

  9
$UCSORG
 10
0.0
 20
0.0
 30
0.0
  9
$UCSXDIR
 10
1.0
 20
0.0
 30
0.0
  9
$UCSYDIR
 10
0.0
 20
1.0
 30
0.0
  9
$UCSORTHOREF
  2

  9
$UCSORTHOVIEW
 70
     0
  9
$UCSORGTOP
 10
0.0
 20
0.0
 30
0.0
  9
$UCSORGBOTTOM
 10
0.0
 20
0.0
 30
0.0
  9
$UCSORGLEFT
 10
0.0
 20
0.0
 30
0.0
  9
$UCSORGRIGHT
 10
0.0
 20
0.0
 30
0.0
  9
$UCSORGFRONT
 10
0.0
 20
0.0
 30
0.0
  9
$UCSORGBACK
 10
0.0
 20
0.0
 30
0.0
  9
$PUCSBASE
  2

  9
$PUCSNAME
  2

  9
$PUCSORG
 10
0.0
 20
0.0
 30
0.0
  9
$PUCSXDIR
 10
1.0
 20
0.0
 30
0.0
  9
$PUCSYDIR
 10
0.0
 20
1.0
 30
0.0
  9
$PUCSORTHOREF
  2

  9
$PUCSORTHOVIEW
 70
     0
  9
$PUCSORGTOP
 10
0.0
 20
0.0
 30
0.0
  9
$PUCSORGBOTTOM
 10
0.0
 20
0.0
 30
0.0
  9
$PUCSORGLEFT
 10
0.0
 20
0.0
 30
0.0
  9
$PUCSORGRIGHT
 10
0.0
 20
0.0
 30
0.0
  9
$PUCSORGFRONT
 10
0.0
 20
0.0
 30
0.0
  9
$PUCSORGBACK
 10
0.0
 20
0.0
 30
0.0
  9
$USERI1
 70
     0
  9
$USERI2
 70
     0
  9
$USERI3
 70
     0
  9
$USERI4
 70
     0
  9
$USERI5
 70
     0
  9
$USERR1
 40
0.0
  9
$USERR2
 40
0.0
  9
$USERR3
 40
0.0
  9
$USERR4
 40
0.0
  9
$USERR5
 40
0.0
  9
$WORLDVIEW
 70
     1
  9
$SHADEDGE
 70
     3
  9
$SHADEDIF
 70
    70
  9
$TILEMODE
 70
     1
  9
$MAXACTVP
 70
    16
  9
$PINSBASE
 10
0.0
 20
0.0
 30
0.0
  9
$PLIMCHECK
 70
     0
  9
$PEXTMIN
 10
1.000000E+20
 20
1.000000E+20
 30
1.000000E+20
  9
$PEXTMAX
 10
-1.000000E+20
 20
-1.000000E+20
 30
-1.000000E+20
  9
$PLIMMIN
 10
0.0
 20
0.0
  9
$PLIMMAX
 10
12.0
 20
9.0
  9
$UNITMODE
 70
     0
  9
$VISRETAIN
 70
     0
  9
$PLINEGEN
 70
     1
  9
$PSLTSCALE
 70
     0
  9
$TREEDEPTH
 70
  3020
  9
$CMLSTYLE
  2
Standard
  9
$CMLJUST
 70
     0
  9
$CMLSCALE
 40
1.0
  9
$PROXYGRAPHICS
 70
     0
  9
$MEASUREMENT
 70
     0
  9
$CELWEIGHT
370
     0
  9
$ENDCAPS
280
     0
  9
$JOINSTYLE
280
     0
  9
$LWDISPLAY
290
     0
  9
$INSUNITS
 70
     0
  9
$HYPERLINKBASE
  1

  9
$STYLESHEET
  1

  9
$XEDIT
290
     1
  9
$CEPSNTYPE
380
     0
  9
$PSTYLEMODE
290
     1
  9
$FINGERPRINTGUID
  2

  9
$VERSIONGUID
  2

  9
$EXTNAMES
290
     1
  9
$PSVPSCALE
 40
0.0
  0
ENDSEC
  0
SECTION
  2
CLASSES
  0
CLASS
  1
LWPOLYLINE
  2
AcDbPolyline
  3
AutoCAD 2000
 90
        0
280
     0
281
     1
  0
CLASS
  1
IMAGE
  2
AcDbRasterImage
  3
ISM
 90
      127
280
     0
281
     1
  0
CLASS
  1
OLE2FRAME
  2
AcDbOle2Frame
  3
AutoCAD 2000
 90
        0
280
     0
281
     1
  0
CLASS
  1
HATCH
  2
AcDbHatch
  3
AutoCAD 2000
 90
        0
280
     0
281
     1
  0
CLASS
  1
DICTIONARYVAR
  2
AcDbDictionaryVar
  3
AutoCAD 2000
 90
        0
280
     0
281
     0
  0
CLASS
  1
RASTERVARIABLES
  2
AcDbRasterVariables
  3
ISM
 90
        0
280
     0
281
     0
  0
CLASS
  1
IMAGEDEF
  2
AcDbRasterImageDef
  3
ISM
 90
        0
280
     0
281
     0
  0
CLASS
  1
IMAGEDEF_REACTOR
  2
AcDbRasterImageDefReactor
  3
ISM
 90
        1
280
     0
281
     0
  0
CLASS
  1
IDBUFFER
  2
AcDbIdBuffer
  3
AutoCAD 2000
 90
        0
280
     0
281
     0
  0
CLASS
  1
SPATIAL_FILTER
  2
AcDbSpatialFilter
  3
AutoCAD 2000
 90
        0
280
     0
281
     0
  0
CLASS
  1
XRECORD
  2
AcDbXrecord
  3
AutoCAD 2000
 90
        0
280
     0
281
     0
  0
CLASS
  1
SORTENTSTABLE
  2
AcDbSortentsTable
  3
AutoCAD 2000
 90
        0
280
     0
281
     0
  0
CLASS
  1
LAYER_INDEX
  2
AcDbLayerIndex
  3
AutoCAD 2000
 90
        0
280
     0
281
     0
  0
CLASS
  1
SPATIAL_INDEX
  2
AcDbSpatialIndex
  3
AutoCAD 2000
 90
        0
280
     0
281
     0
  0
CLASS
  1
OBJECT_PTR
  2
CAseDLPNTableRecord
  3
"ASE-LPNTableRecord"
 90
        1
280
     0
281
     0
  0
CLASS
  1
LAYOUT
  2
AcDbLayout
  3
AutoCAD 2000
 90
        0
280
     0
281
     0
  0
CLASS
  1
PLOTSETTINGS
  2
AcDbPlotSettings
  3
AutoCAD 2000
 90
        0
280
     0
281
     0
  0
CLASS
  1
ACDBDICTIONARYWDFLT
  2
AcDbDictionaryWithDefault
  3
AutoCAD 2000
 90
        0
280
     0
281
     0
  0
CLASS
  1
ACDBPLACEHOLDER
  2
AcDbPlaceHolder
  3
AutoCAD 2000
 90
        0
280
     0
281
     0
  0
CLASS
  1
VBA_PROJECT
  2
AcDbVbaProject
  3
acadvba
 90
        0
280
     0
281
     0
  0
CLASS
  1
WIPEOUT
  2
AcDbWipeout
  3
WipeOut|AutoCAD Express Tool|expresstools@autodesk.com
 90
      127
280
     0
281
     1
  0
CLASS
  1
WIPEOUTVARIABLES
  2
AcDbWipeoutVariables
  3
WipeOut|AutoCAD Express Tool|expresstools@autodesk.com
 90
        0
280
     0
281
     0
  0
CLASS
  1
RTEXT
  2
RText
  3
RText|AutoCAD Express Tool|expresstools@autodesk.com
 90
        0
280
     0
281
     1
  0
CLASS
  1
ARCALIGNEDTEXT
  2
AcDbArcAlignedText
  3
ATEXT|AutoCAD Express Tool|expresstools@autodesk.com
 90
        0
280
     0
281
     1
  0
ENDSEC
  0
SECTION
  2
TABLES
  0
TABLE
  2
VPORT
  5
7
100
AcDbSymbolTable
 70
     1
  0
VPORT
  5
15
100
AcDbSymbolTableRecord
100
AcDbViewportTableRecord
  2
*ACTIVE
 70
     0
 10
0.0
 20
0.0
 11
1.0
 21
1.0
 12
6.591288
 22
4.579184
 13
0.0
 23
0.0
 14
1.0
 24
1.0
 15
0.0
 25
0.0
 16
0.0
 26
0.0
 36
1.0
 17
0.0
 27
0.0
 37
0.0
 40
9.158369
 41
0.688564
 42
50.0
 43
0.0
 44
0.0
 50
0.0
 51
0.0
 71
     0
 72
   100
 73
     1
 74
     1
 75
     0
 76
     0
 77
     0
 78
     0
281
     0
 65
     0
110
0.0
120
0.0
130
0.0
111
1.0
121
0.0
131
0.0
112
0.0
122
1.0
132
0.0
345
0
346
0
 79
     0
146
0.0
  0
ENDTAB
  0
TABLE
  2
LTYPE
  5
4
100
AcDbSymbolTable
 70
     3
  0
LTYPE
  5
11
100
AcDbSymbolTableRecord
100
AcDbLinetypeTableRecord
  2
ByBlock
 70
    64
  3

 72
    65
 73
     0
 40
0.0
  0
LTYPE
  5
12
100
AcDbSymbolTableRecord
100
AcDbLinetypeTableRecord
  2
ByLayer
 70
    64
  3

 72
    65
 73
     0
 40
0.0
  0
LTYPE
  5
13
100
AcDbSymbolTableRecord
100
AcDbLinetypeTableRecord
  2
Continuous
 70
    64
  3
Solid line
 72
    65
 73
     0
 40
0.0
  0
ENDTAB
  0
TABLE
  2
LAYER
  5
2
100
AcDbSymbolTable
 70
     1
  0
LAYER
  5
14
100
AcDbSymbolTableRecord
100
AcDbLayerTableRecord
  2
0
 70
     0
 62
     7
  6
Continuous
290
     1
370
    -3
390
1D
  0
ENDTAB
  0
TABLE
  2
STYLE
  5
3
100
AcDbSymbolTable
 70
     1
  0
STYLE
  5
17
100
AcDbSymbolTableRecord
100
AcDbTextStyleTableRecord
  2
Standard
 70
     0
 40
0.0
 41
1.0
 50
0.0
 71
     0
 42
0.0
  3
FG教科書体NT-M
  4

1001
ACAD
1000
FG教科書体NT-M
1071
        0
  0
ENDTAB
  0
TABLE
  2
VIEW
  5
5
100
AcDbSymbolTable
 70
     0
  0
ENDTAB
  0
TABLE
  2
UCS
  5
6
100
AcDbSymbolTable
 70
     0
  0
ENDTAB
  0
TABLE
  2
APPID
  5
8
100
AcDbSymbolTable
 70
     2
  0
APPID
  5
16
100
AcDbSymbolTableRecord
100
AcDbRegAppTableRecord
  2
ACAD
 70
     0
  0
APPID
  5
26
100
AcDbSymbolTableRecord
100
AcDbRegAppTableRecord
  2
TOPsolid_Design
 70
     0
  0
ENDTAB
  0
TABLE
  2
DIMSTYLE
  5
9
100
AcDbSymbolTable
 70
     1
100
AcDbDimStyleTable
 71
     0
  0
DIMSTYLE
105
18
100
AcDbSymbolTableRecord
100
AcDbDimStyleTableRecord
  2
Standard
 70
     0
  3

  4

 40
1.0
 41
1.40208
 42
1.40208
 43
0.38
 44
1.05156
 45
0.0
 46
0.0
 47
0.0
 48
0.0
 71
     0
 72
     0
 73
     0
 74
     0
 75
     0
 76
     0
 77
     1
 78
     0
 79
     0
140
3.5052
141
0.09
142
0.0
143
25.4
144
1.0
145
0.0
146
0.5
147
1.7526
148
0.0
170
     0
171
     2
172
     0
173
     0
174
     0
175
     0
176
     7
177
     7
178
     7
179
     0
271
     2
272
     4
273
     2
274
     2
275
     0
276
     0
277
     2
278
    46
279
     0
280
     0
281
     0
282
     0
283
     1
284
     0
285
     0
286
     0
288
     0
289
     3
340
17
341
0
342
0
343
0
344
0
371
    -2
372
    -2
  0
ENDTAB
  0
TABLE
  2
BLOCK_RECORD
  5
1
100
AcDbSymbolTable
 70
     0
  0
BLOCK_RECORD
  5
A
100
AcDbSymbolTableRecord
100
AcDbBlockTableRecord
  2
*MODEL_SPACE
340
20
  0
BLOCK_RECORD
  5
B
100
AcDbSymbolTableRecord
100
AcDbBlockTableRecord
  2
*PAPER_SPACE
340
21
  0
ENDTAB
  0
ENDSEC
  0
SECTION
  2
BLOCKS
  0
BLOCK
  5
D
100
AcDbEntity
  8
0
390
0
100
AcDbBlockBegin
  2
*MODEL_SPACE
 70
     0
 10
0.0
 20
0.0
 30
0.0
  3
*MODEL_SPACE
  1

  0
ENDBLK
  5
E
100
AcDbEntity
  8
0
390
0
100
AcDbBlockEnd
  0
BLOCK
  5
F
100
AcDbEntity
 67
     1
  8
0
390
0
100
AcDbBlockBegin
  2
*PAPER_SPACE
 70
     0
 10
0.0
 20
0.0
 30
0.0
  3
*PAPER_SPACE
  1

  0
ENDBLK
  5
10
100
AcDbEntity
 67
     1
  8
0
390
0
100
AcDbBlockEnd
  0
ENDSEC
  0
SECTION
  2
ENTITIES
  0
LINE
  5
27
100
AcDbEntity
  8
0
390
0
  6
Continuous
 62
     7
100
AcDbLine
 10
158.499989
 20
-177.603544
 30
0.0
 11
160.658433
 21
-177.603544
 31
0.0
  0
LINE
  5
28
100
AcDbEntity
  8
0
390
0
  6
Continuous
 62
     7
100
AcDbLine
 10
160.658433
 20
-177.603544
 30
0.0
 11
180.243247
 21
-177.603544
 31
0.0
  0
LINE
  5
29
100
AcDbEntity
  8
0
390
0
  6
Continuous
 62
     7
100
AcDbLine
 10
180.243247
 20
-177.603544
 30
0.0
 11
182.500011
 21
-177.603544
 31
0.0
  0
LINE
  5
2A
100
AcDbEntity
  8
0
390
0
  6
Continuous
 62
     7
100
AcDbLine
 10
156.145437
 20
-176.244133
 30
0.0
 11
156.183889
 21
-176.266193
 31
0.0
  0
LINE
  5
2B
100
AcDbEntity
  8
0
390
0
  6
Continuous
 62
     7
100
AcDbLine
 10
184.854564
 20
-176.244133
 30
0.0
 11
184.816111
 21
-176.266193
 31
0.0
  0
POLYLINE
  5
2C
100
AcDbEntity
  8
0
390
0
  6
Continuous
 62
     7
100
AcDb2dPolyline
 66
     1
 10
0.0
 20
0.0
 30
0.0
 40
0.1
 41
0.1
  0
VERTEX
  5
2D
100
AcDbEntity
  8
0
390
0
 62
     7
100
AcDbVertex
100
AcDb2dVertex
 10
184.816111
 20
-176.266193
 30
0.0
  0
VERTEX
  5
2E
100
AcDbEntity
  8
0
390
0
 62
     7
100
AcDbVertex
100
AcDb2dVertex
 10
184.396418
 20
-176.488747
 30
0.0
  0
VERTEX
  5
2F
100
AcDbEntity
  8
0
390
0
 62
     7
100
AcDbVertex
100
AcDb2dVertex
 10
183.879766
 20
-176.71389
 30
0.0
  0
VERTEX
  5
30
100
AcDbEntity
  8
0
390
0
 62
     7
100
AcDbVertex
100
AcDb2dVertex
 10
183.336953
 20
-176.887832
 30
0.0
  0
VERTEX
  5
31
100
AcDbEntity
  8
0
390
0
 62
     7
100
AcDbVertex
100
AcDb2dVertex
 10
182.801309
 20
-176.992026
 30
0.0
  0
VERTEX
  5
32
100
AcDbEntity
  8
0
390
0
 62
     7
100
AcDbVertex
100
AcDb2dVertex
 10
182.266516
 20
-177.026187
 30
0.0
  0
VERTEX
  5
33
100
AcDbEntity
  8
0
390
0
 62
     7
100
AcDbVertex
100
AcDb2dVertex
 10
181.734273
 20
-176.990788
 30
0.0
  0
VERTEX
  5
34
100
AcDbEntity
  8
0
390
0
 62
     7
100
AcDbVertex
100
AcDb2dVertex
 10
181.200865
 20
-176.88605
 30
0.0
  0
VERTEX
  5
35
100
AcDbEntity
  8
0
390
0
 62
     7
100
AcDbVertex
100
AcDb2dVertex
 10
180.661505
 20
-176.712392
 30
0.0
  0
VERTEX
  5
36
100
AcDbEntity
  8
0
390
0
 62
     7
100
AcDbVertex
100
AcDb2dVertex
 10
180.154685
 20
-176.491845
 30
0.0
  0
SEQEND
  5
37
100
AcDbEntity
  8
0
390
0
  0
LINE
  5
38
100
AcDbEntity
  8
0
390
0
  6
Continuous
 62
     7
100
AcDbLine
 10
180.154685
 20
-176.491845
 30
0.0
 11
179.089001
 21
-175.865076
 31
0.0
  0
LINE
  5
39
100
AcDbEntity
  8
0
390
0
  6
Continuous
 62
     7
100
AcDbLine
 10
158.5
 20
-177.603544
 30
0.0
 11
160.658433
 21
-177.603544
 31
0.0
  0
ARC
  5
3A
100
AcDbEntity
  8
0
390
0
  6
Continuous
 62
     7
100
AcDbCircle
 10
159.577036
 20
-167.537501
 30
0.0
 40
9.492287
210
0.0
220
0.0
230
1.0
100
AcDbArc
 50
271.577214
 51
298.681745
  0
LINE
  5
3B
100
AcDbEntity
  8
0
390
0
  6
Continuous
 62
     7
100
AcDbLine
 10
160.658433
 20
-177.603544
 30
0.0
 11
182.5
 21
-177.603544
 31
0.0
  0
LINE
  5
3C
100
AcDbEntity
  8
0
390
0
  6
Continuous
 62
     7
100
AcDbLine
 10
159.838302
 20
-177.026192
 30
0.0
 11
159.391351
 21
-177.012538
 31
0.0
  0
ARC
  5
3D
100
AcDbEntity
  8
0
390
0
  6
Continuous
 62
     7
100
AcDbCircle
 10
160.006774
 20
-168.178586
 30
0.0
 40
8.855363
210
0.0
220
0.0
230
1.0
100
AcDbArc
 50
245.101117
 51
266.014892
  0
LINE
  5
3E
100
AcDbEntity
  8
0
390
0
  6
Continuous
 62
     7
100
AcDbLine
 10
156.278505
 20
-176.210863
 30
0.0
 11
155.543803
 21
-175.865076
 31
0.0
  0
LINE
  5
3F
100
AcDbEntity
  8
0
390
0
  6
Continuous
 62
     7
100
AcDbLine
 10
155.543803
 20
-175.865076
 30
0.0
 11
156.085679
 21
-176.209311
 31
0.0
  0
LINE
  5
40
100
AcDbEntity
  8
0
390
0
  6
Continuous
 62
     7
100
AcDbLine
 10
156.085679
 20
-176.209311
 30
0.0
 11
156.145437
 21
-176.244133
 31
0.0
  0
LINE
  5
41
100
AcDbEntity
  8
0
390
0
  6
Continuous
 62
     7
100
AcDbLine
 10
185.456198
 20
-175.865076
 30
0.0
 11
184.914322
 21
-176.209311
 31
0.0
  0
LINE
  5
42
100
AcDbEntity
  8
0
390
0
  6
Continuous
 62
     7
100
AcDbLine
 10
184.914322
 20
-176.209311
 30
0.0
 11
184.854564
 21
-176.244133
 31
0.0
  0
ARC
  5
43
100
AcDbEntity
  8
0
390
0
  6
Continuous
 62
     7
100
AcDbCircle
 10
171.610902
 20
-152.364496
 30
0.0
 40
24.661695
210
0.0
220
0.0
230
1.0
100
AcDbArc
 50
252.348455
 51
287.651545
  0
LINE
  5
44
100
AcDbEntity
  8
0
390
0
  6
Continuous
 62
     7
100
AcDbLine
 10
179.089001
 20
-164.603544
 30
0.0
 11
185.456199
 21
-164.603544
 31
0.0
  0
LINE
  5
45
100
AcDbEntity
  8
0
390
0
  6
Continuous
 62
     7
100
AcDbLine
 10
164.132803
 20
-164.603544
 30
0.0
 11
179.089001
 21
-164.603544
 31
0.0
  0
LINE
  5
46
100
AcDbEntity
  8
0
390
0
  6
Continuous
 62
     7
100
AcDbLine
 10
155.543802
 20
-164.603544
 30
0.0
 11
164.132803
 21
-164.603544
 31
0.0
  0
LINE
  5
47
100
AcDbEntity
  8
0
390
0
  6
Continuous
 62
     7
100
AcDbLine
 10
155.543802
 20
-164.603544
 30
0.0
 11
155.543802
 21
-175.865076
 31
0.0
  0
LINE
  5
48
100
AcDbEntity
  8
0
390
0
  6
Continuous
 62
     7
100
AcDbLine
 10
155.543802
 20
-175.865076
 30
0.0
 11
156.103573
 21
-176.219592
 31
0.0
  0
LINE
  5
49
100
AcDbEntity
  8
0
390
0
  6
Continuous
 62
     7
100
AcDbLine
 10
185.456199
 20
-175.865076
 30
0.0
 11
185.456199
 21
-164.603544
 31
0.0
  0
LINE
  5
4A
100
AcDbEntity
  8
0
390
0
  6
Continuous
 62
     7
100
AcDbLine
 10
179.089001
 20
-164.603544
 30
0.0
 11
185.456199
 21
-164.603544
 31
0.0
  0
LINE
  5
4B
100
AcDbEntity
  8
0
390
0
  6
Continuous
 62
     7
100
AcDbLine
 10
185.456199
 20
-164.603544
 30
0.0
 11
185.456199
 21
-175.865076
 31
0.0
  0
LINE
  5
4C
100
AcDbEntity
  8
0
390
0
  6
Continuous
 62
     7
100
AcDbLine
 10
185.456199
 20
-175.865076
 30
0.0
 11
184.896428
 21
-176.219592
 31
0.0
  0
LINE
  5
4D
100
AcDbEntity
  8
0
390
0
  6
Continuous
 62
     7
100
AcDbLine
 10
184.896428
 20
-176.219592
 30
0.0
 11
184.815599
 21
-176.266241
 31
0.0
  0
POLYLINE
  5
4E
100
AcDbEntity
  8
0
390
0
  6
Continuous
 62
     7
100
AcDb2dPolyline
 66
     1
 10
0.0
 20
0.0
 30
0.0
 40
0.1
 41
0.1
  0
VERTEX
  5
4F
100
AcDbEntity
  8
0
390
0
 62
     7
100
AcDbVertex
100
AcDb2dVertex
 10
184.815599
 20
-176.266241
 30
0.0
  0
VERTEX
  5
50
100
AcDbEntity
  8
0
390
0
 62
     7
100
AcDbVertex
100
AcDb2dVertex
 10
184.387215
 20
-176.493
 30
0.0
  0
VERTEX
  5
51
100
AcDbEntity
  8
0
390
0
 62
     7
100
AcDbVertex
100
AcDb2dVertex
 10
183.879766
 20
-176.71389
 30
0.0
  0
VERTEX
  5
52
100
AcDbEntity
  8
0
390
0
 62
     7
100
AcDbVertex
100
AcDb2dVertex
 10
183.334806
 20
-176.887897
 30
0.0
  0
VERTEX
  5
53
100
AcDbEntity
  8
0
390
0
 62
     7
100
AcDbVertex
100
AcDb2dVertex
 10
182.797056
 20
-176.991996
 30
0.0
  0
VERTEX
  5
54
100
AcDbEntity
  8
0
390
0
 62
     7
100
AcDbVertex
100
AcDb2dVertex
 10
182.266516
 20
-177.026187
 30
0.0
  0
VERTEX
  5
55
100
AcDbEntity
  8
0
390
0
 62
     7
100
AcDbVertex
100
AcDb2dVertex
 10
181.738912
 20
-176.990815
 30
0.0
  0
VERTEX
  5
56
100
AcDbEntity
  8
0
390
0
 62
     7
100
AcDbVertex
100
AcDb2dVertex
 10
181.203908
 20
-176.886217
 30
0.0
  0
VERTEX
  5
57
100
AcDbEntity
  8
0
390
0
 62
     7
100
AcDbVertex
100
AcDb2dVertex
 10
180.661505
 20
-176.712392
 30
0.0
  0
VERTEX
  5
58
100
AcDbEntity
  8
0
390
0
 62
     7
100
AcDbVertex
100
AcDb2dVertex
 10
180.155396
 20
-176.491761
 30
0.0
  0
VERTEX
  5
59
100
AcDbEntity
  8
0
390
0
 62
     7
100
AcDbVertex
100
AcDb2dVertex
 10
180.154655
 20
-176.491399
 30
0.0
  0
SEQEND
  5
5A
100
AcDbEntity
  8
0
390
0
  0
LINE
  5
5B
100
AcDbEntity
  8
0
390
0
  6
Continuous
 62
     7
100
AcDbLine
 10
180.154655
 20
-176.491399
 30
0.0
 11
179.089001
 21
-175.865076
 31
0.0
  0
LINE
  5
5C
100
AcDbEntity
  8
0
390
0
  6
Continuous
 62
     7
100
AcDbLine
 10
179.089001
 20
-175.865076
 30
0.0
 11
179.089001
 21
-164.603544
 31
0.0
  0
LINE
  5
5D
100
AcDbEntity
  8
0
390
0
  6
Continuous
 62
     7
100
AcDbLine
 10
164.132803
 20
-164.603544
 30
0.0
 11
179.089001
 21
-164.603544
 31
0.0
  0
LINE
  5
5E
100
AcDbEntity
  8
0
390
0
  6
Continuous
 62
     7
100
AcDbLine
 10
179.089001
 20
-164.603544
 30
0.0
 11
179.089001
 21
-175.865076
 31
0.0
  0
ARC
  5
5F
100
AcDbEntity
  8
0
390
0
  6
Continuous
 62
     7
100
AcDbCircle
 10
171.610902
 20
-152.364496
 30
0.0
 40
24.661695
210
0.0
220
0.0
230
1.0
100
AcDbArc
 50
252.348455
 51
287.651545
  0
LINE
  5
60
100
AcDbEntity
  8
0
390
0
  6
Continuous
 62
     7
100
AcDbLine
 10
164.132803
 20
-175.865076
 30
0.0
 11
164.132803
 21
-164.603544
 31
0.0
  0
LINE
  5
61
100
AcDbEntity
  8
0
390
0
  6
Continuous
 62
     7
100
AcDbLine
 10
155.543802
 20
-164.603544
 30
0.0
 11
164.132803
 21
-164.603544
 31
0.0
  0
LINE
  5
62
100
AcDbEntity
  8
0
390
0
  6
Continuous
 62
     7
100
AcDbLine
 10
164.132803
 20
-164.603544
 30
0.0
 11
164.132803
 21
-175.865076
 31
0.0
  0
ARC
  5
63
100
AcDbEntity
  8
0
390
0
  6
Continuous
 62
     7
100
AcDbCircle
 10
159.566153
 20
-167.510139
 30
0.0
 40
9.521515
210
0.0
220
0.0
230
1.0
100
AcDbArc
 50
271.980664
 51
298.660176
  0
LINE
  5
64
100
AcDbEntity
  8
0
390
0
  6
Continuous
 62
     7
100
AcDbLine
 10
159.895238
 20
-177.025966
 30
0.0
 11
159.839072
 21
-177.026192
 31
0.0
  0
LINE
  5
65
100
AcDbEntity
  8
0
390
0
  6
Continuous
 62
     7
100
AcDbLine
 10
159.839072
 20
-177.026192
 30
0.0
 11
159.781386
 21
-177.02597
 31
0.0
  0
LINE
  5
66
100
AcDbEntity
  8
0
390
0
  6
Continuous
 62
     7
100
AcDbLine
 10
159.781386
 20
-177.02597
 30
0.0
 11
159.39193
 21
-177.012523
 31
0.0
  0
ARC
  5
67
100
AcDbEntity
  8
0
390
0
  6
Continuous
 62
     7
100
AcDbCircle
 10
160.100117
 20
-167.816704
 30
0.0
 40
9.223048
210
0.0
220
0.0
230
1.0
100
AcDbArc
 50
245.52089
 51
265.59624
  0
LINE
  5
68
100
AcDbEntity
  8
0
390
0
  6
Continuous
 62
     7
100
AcDbLine
 10
156.278441
 20
-176.210715
 30
0.0
 11
155.543802
 21
-175.865076
 31
0.0
  0
LINE
  5
69
100
AcDbEntity
  8
0
390
0
  6
Continuous
 62
     7
100
AcDbLine
 10
155.543802
 20
-175.865076
 30
0.0
 11
155.543802
 21
-164.603544
 31
0.0
  0
LINE
  5
6A
100
AcDbEntity
  8
0
390
0
  6
Continuous
 62
     7
100
AcDbLine
 10
-182.500011
 20
-177.603544
 30
0.0
 11
-180.341567
 21
-177.603544
 31
0.0
  0
LINE
  5
6B
100
AcDbEntity
  8
0
390
0
  6
Continuous
 62
     7
100
AcDbLine
 10
-180.341567
 20
-177.603544
 30
0.0
 11
-160.756753
 21
-177.603544
 31
0.0
  0
LINE
  5
6C
100
AcDbEntity
  8
0
390
0
  6
Continuous
 62
     7
100
AcDbLine
 10
-160.756753
 20
-177.603544
 30
0.0
 11
-158.499989
 21
-177.603544
 31
0.0
  0
LINE
  5
6D
100
AcDbEntity
  8
0
390
0
  6
Continuous
 62
     7
100
AcDbLine
 10
-184.854563
 20
-176.244133
 30
0.0
 11
-184.816111
 21
-176.266193
 31
0.0
  0
LINE
  5
6E
100
AcDbEntity
  8
0
390
0
  6
Continuous
 62
     7
100
AcDbLine
 10
-156.145436
 20
-176.244133
 30
0.0
 11
-156.183889
 21
-176.266193
 31
0.0
  0
POLYLINE
  5
6F
100
AcDbEntity
  8
0
390
0
  6
Continuous
 62
     7
100
AcDb2dPolyline
 66
     1
 10
0.0
 20
0.0
 30
0.0
 40
0.1
 41
0.1
  0
VERTEX
  5
70
100
AcDbEntity
  8
0
390
0
 62
     7
100
AcDbVertex
100
AcDb2dVertex
 10
-156.183889
 20
-176.266193
 30
0.0
  0
VERTEX
  5
71
100
AcDbEntity
  8
0
390
0
 62
     7
100
AcDbVertex
100
AcDb2dVertex
 10
-156.603582
 20
-176.488747
 30
0.0
  0
VERTEX
  5
72
100
AcDbEntity
  8
0
390
0
 62
     7
100
AcDbVertex
100
AcDb2dVertex
 10
-157.120234
 20
-176.71389
 30
0.0
  0
VERTEX
  5
73
100
AcDbEntity
  8
0
390
0
 62
     7
100
AcDbVertex
100
AcDb2dVertex
 10
-157.663047
 20
-176.887832
 30
0.0
  0
VERTEX
  5
74
100
AcDbEntity
  8
0
390
0
 62
     7
100
AcDbVertex
100
AcDb2dVertex
 10
-158.198691
 20
-176.992026
 30
0.0
  0
VERTEX
  5
75
100
AcDbEntity
  8
0
390
0
 62
     7
100
AcDbVertex
100
AcDb2dVertex
 10
-158.733484
 20
-177.026187
 30
0.0
  0
VERTEX
  5
76
100
AcDbEntity
  8
0
390
0
 62
     7
100
AcDbVertex
100
AcDb2dVertex
 10
-159.265727
 20
-176.990788
 30
0.0
  0
VERTEX
  5
77
100
AcDbEntity
  8
0
390
0
 62
     7
100
AcDbVertex
100
AcDb2dVertex
 10
-159.799135
 20
-176.88605
 30
0.0
  0
VERTEX
  5
78
100
AcDbEntity
  8
0
390
0
 62
     7
100
AcDbVertex
100
AcDb2dVertex
 10
-160.338495
 20
-176.712392
 30
0.0
  0
VERTEX
  5
79
100
AcDbEntity
  8
0
390
0
 62
     7
100
AcDbVertex
100
AcDb2dVertex
 10
-160.845315
 20
-176.491845
 30
0.0
  0
SEQEND
  5
7A
100
AcDbEntity
  8
0
390
0
  0
LINE
  5
7B
100
AcDbEntity
  8
0
390
0
  6
Continuous
 62
     7
100
AcDbLine
 10
-160.845315
 20
-176.491845
 30
0.0
 11
-161.910999
 21
-175.865076
 31
0.0
  0
LINE
  5
7C
100
AcDbEntity
  8
0
390
0
  6
Continuous
 62
     7
100
AcDbLine
 10
-182.5
 20
-177.603544
 30
0.0
 11
-180.341567
 21
-177.603544
 31
0.0
  0
LINE
  5
7D
100
AcDbEntity
  8
0
390
0
  6
Continuous
 62
     7
100
AcDbLine
 10
-185.456197
 20
-175.865076
 30
0.0
 11
-184.914321
 21
-176.209311
 31
0.0
  0
LINE
  5
7E
100
AcDbEntity
  8
0
390
0
  6
Continuous
 62
     7
100
AcDbLine
 10
-184.914321
 20
-176.209311
 30
0.0
 11
-184.854563
 21
-176.244133
 31
0.0
  0
LINE
  5
7F
100
AcDbEntity
  8
0
390
0
  6
Continuous
 62
     7
100
AcDbLine
 10
-181.161698
 20
-177.026192
 30
0.0
 11
-181.608649
 21
-177.012538
 31
0.0
  0
ARC
  5
80
100
AcDbEntity
  8
0
390
0
  6
Continuous
 62
     7
100
AcDbCircle
 10
-180.993226
 20
-168.178586
 30
0.0
 40
8.855363
210
0.0
220
0.0
230
1.0
100
AcDbArc
 50
245.101117
 51
266.014893
  0
LINE
  5
81
100
AcDbEntity
  8
0
390
0
  6
Continuous
 62
     7
100
AcDbLine
 10
-184.721495
 20
-176.210863
 30
0.0
 11
-185.456197
 21
-175.865076
 31
0.0
  0
ARC
  5
82
100
AcDbEntity
  8
0
390
0
  6
Continuous
 62
     7
100
AcDbCircle
 10
-181.422964
 20
-167.537501
 30
0.0
 40
9.492287
210
0.0
220
0.0
230
1.0
100
AcDbArc
 50
271.577214
 51
298.681745
  0
ARC
  5
83
100
AcDbEntity
  8
0
390
0
  6
Continuous
 62
     7
100
AcDbCircle
 10
-169.389098
 20
-152.364496
 30
0.0
 40
24.661695
210
0.0
220
0.0
230
1.0
100
AcDbArc
 50
252.348455
 51
287.651545
  0
LINE
  5
84
100
AcDbEntity
  8
0
390
0
  6
Continuous
 62
     7
100
AcDbLine
 10
-155.543802
 20
-175.865076
 30
0.0
 11
-156.085678
 21
-176.209311
 31
0.0
  0
LINE
  5
85
100
AcDbEntity
  8
0
390
0
  6
Continuous
 62
     7
100
AcDbLine
 10
-156.085678
 20
-176.209311
 30
0.0
 11
-156.145436
 21
-176.244133
 31
0.0
  0
LINE
  5
86
100
AcDbEntity
  8
0
390
0
  6
Continuous
 62
     7
100
AcDbLine
 10
-180.341567
 20
-177.603544
 30
0.0
 11
-158.5
 21
-177.603544
 31
0.0
  0
LINE
  5
87
100
AcDbEntity
  8
0
390
0
  6
Continuous
 62
     7
100
AcDbLine
 10
-161.910999
 20
-164.603544
 30
0.0
 11
-155.543801
 21
-164.603544
 31
0.0
  0
LINE
  5
88
100
AcDbEntity
  8
0
390
0
  6
Continuous
 62
     7
100
AcDbLine
 10
-176.867197
 20
-164.603544
 30
0.0
 11
-161.910999
 21
-164.603544
 31
0.0
  0
LINE
  5
89
100
AcDbEntity
  8
0
390
0
  6
Continuous
 62
     7
100
AcDbLine
 10
-185.456198
 20
-164.603544
 30
0.0
 11
-176.867197
 21
-164.603544
 31
0.0
  0
LINE
  5
8A
100
AcDbEntity
  8
0
390
0
  6
Continuous
 62
     7
100
AcDbLine
 10
-185.456198
 20
-164.603544
 30
0.0
 11
-185.456198
 21
-175.865076
 31
0.0
  0
LINE
  5
8B
100
AcDbEntity
  8
0
390
0
  6
Continuous
 62
     7
100
AcDbLine
 10
-185.456198
 20
-175.865076
 30
0.0
 11
-184.896427
 21
-176.219592
 31
0.0
  0
LINE
  5
8C
100
AcDbEntity
  8
0
390
0
  6
Continuous
 62
     7
100
AcDbLine
 10
-155.543801
 20
-175.865076
 30
0.0
 11
-155.543801
 21
-164.603544
 31
0.0
  0
LINE
  5
8D
100
AcDbEntity
  8
0
390
0
  6
Continuous
 62
     7
100
AcDbLine
 10
-155.543801
 20
-164.603544
 30
0.0
 11
-155.543801
 21
-175.865076
 31
0.0
  0
LINE
  5
8E
100
AcDbEntity
  8
0
390
0
  6
Continuous
 62
     7
100
AcDbLine
 10
-161.910999
 20
-164.603544
 30
0.0
 11
-155.543801
 21
-164.603544
 31
0.0
  0
LINE
  5
8F
100
AcDbEntity
  8
0
390
0
  6
Continuous
 62
     7
100
AcDbLine
 10
-161.910999
 20
-175.865076
 30
0.0
 11
-161.910999
 21
-164.603544
 31
0.0
  0
LINE
  5
90
100
AcDbEntity
  8
0
390
0
  6
Continuous
 62
     7
100
AcDbLine
 10
-155.543801
 20
-175.865076
 30
0.0
 11
-156.103572
 21
-176.219592
 31
0.0
  0
LINE
  5
91
100
AcDbEntity
  8
0
390
0
  6
Continuous
 62
     7
100
AcDbLine
 10
-156.103572
 20
-176.219592
 30
0.0
 11
-156.184401
 21
-176.266241
 31
0.0
  0
POLYLINE
  5
92
100
AcDbEntity
  8
0
390
0
  6
Continuous
 62
     7
100
AcDb2dPolyline
 66
     1
 10
0.0
 20
0.0
 30
0.0
 40
0.1
 41
0.1
  0
VERTEX
  5
93
100
AcDbEntity
  8
0
390
0
 62
     7
100
AcDbVertex
100
AcDb2dVertex
 10
-156.184401
 20
-176.266241
 30
0.0
  0
VERTEX
  5
94
100
AcDbEntity
  8
0
390
0
 62
     7
100
AcDbVertex
100
AcDb2dVertex
 10
-156.612785
 20
-176.493
 30
0.0
  0
VERTEX
  5
95
100
AcDbEntity
  8
0
390
0
 62
     7
100
AcDbVertex
100
AcDb2dVertex
 10
-157.120234
 20
-176.71389
 30
0.0
  0
VERTEX
  5
96
100
AcDbEntity
  8
0
390
0
 62
     7
100
AcDbVertex
100
AcDb2dVertex
 10
-157.665194
 20
-176.887897
 30
0.0
  0
VERTEX
  5
97
100
AcDbEntity
  8
0
390
0
 62
     7
100
AcDbVertex
100
AcDb2dVertex
 10
-158.202944
 20
-176.991996
 30
0.0
  0
VERTEX
  5
98
100
AcDbEntity
  8
0
390
0
 62
     7
100
AcDbVertex
100
AcDb2dVertex
 10
-158.733484
 20
-177.026187
 30
0.0
  0
VERTEX
  5
99
100
AcDbEntity
  8
0
390
0
 62
     7
100
AcDbVertex
100
AcDb2dVertex
 10
-159.261088
 20
-176.990815
 30
0.0
  0
VERTEX
  5
9A
100
AcDbEntity
  8
0
390
0
 62
     7
100
AcDbVertex
100
AcDb2dVertex
 10
-159.796092
 20
-176.886217
 30
0.0
  0
VERTEX
  5
9B
100
AcDbEntity
  8
0
390
0
 62
     7
100
AcDbVertex
100
AcDb2dVertex
 10
-160.338495
 20
-176.712392
 30
0.0
  0
VERTEX
  5
9C
100
AcDbEntity
  8
0
390
0
 62
     7
100
AcDbVertex
100
AcDb2dVertex
 10
-160.844604
 20
-176.491761
 30
0.0
  0
VERTEX
  5
9D
100
AcDbEntity
  8
0
390
0
 62
     7
100
AcDbVertex
100
AcDb2dVertex
 10
-160.845345
 20
-176.491399
 30
0.0
  0
SEQEND
  5
9E
100
AcDbEntity
  8
0
390
0
  0
LINE
  5
9F
100
AcDbEntity
  8
0
390
0
  6
Continuous
 62
     7
100
AcDbLine
 10
-160.845345
 20
-176.491399
 30
0.0
 11
-161.910999
 21
-175.865076
 31
0.0
  0
LINE
  5
A0
100
AcDbEntity
  8
0
390
0
  6
Continuous
 62
     7
100
AcDbLine
 10
-161.910999
 20
-164.603544
 30
0.0
 11
-161.910999
 21
-175.865076
 31
0.0
  0
LINE
  5
A1
100
AcDbEntity
  8
0
390
0
  6
Continuous
 62
     7
100
AcDbLine
 10
-176.867197
 20
-164.603544
 30
0.0
 11
-161.910999
 21
-164.603544
 31
0.0
  0
LINE
  5
A2
100
AcDbEntity
  8
0
390
0
  6
Continuous
 62
     7
100
AcDbLine
 10
-176.867197
 20
-175.865076
 30
0.0
 11
-176.867197
 21
-164.603544
 31
0.0
  0
ARC
  5
A3
100
AcDbEntity
  8
0
390
0
  6
Continuous
 62
     7
100
AcDbCircle
 10
-169.389098
 20
-152.364496
 30
0.0
 40
24.661695
210
0.0
220
0.0
230
1.0
100
AcDbArc
 50
252.348455
 51
287.651545
  0
LINE
  5
A4
100
AcDbEntity
  8
0
390
0
  6
Continuous
 62
     7
100
AcDbLine
 10
-185.456198
 20
-164.603544
 30
0.0
 11
-176.867197
 21
-164.603544
 31
0.0
  0
LINE
  5
A5
100
AcDbEntity
  8
0
390
0
  6
Continuous
 62
     7
100
AcDbLine
 10
-176.867197
 20
-164.603544
 30
0.0
 11
-176.867197
 21
-175.865076
 31
0.0
  0
ARC
  5
A6
100
AcDbEntity
  8
0
390
0
  6
Continuous
 62
     7
100
AcDbCircle
 10
-181.433847
 20
-167.510139
 30
0.0
 40
9.521515
210
0.0
220
0.0
230
1.0
100
AcDbArc
 50
271.980664
 51
298.660176
  0
LINE
  5
A7
100
AcDbEntity
  8
0
390
0
  6
Continuous
 62
     7
100
AcDbLine
 10
-181.104762
 20
-177.025966
 30
0.0
 11
-181.160928
 21
-177.026192
 31
0.0
  0
LINE
  5
A8
100
AcDbEntity
  8
0
390
0
  6
Continuous
 62
     7
100
AcDbLine
 10
-181.160928
 20
-177.026192
 30
0.0
 11
-181.218614
 21
-177.02597
 31
0.0
  0
LINE
  5
A9
100
AcDbEntity
  8
0
390
0
  6
Continuous
 62
     7
100
AcDbLine
 10
-181.218614
 20
-177.02597
 30
0.0
 11
-181.60807
 21
-177.012523
 31
0.0
  0
ARC
  5
AA
100
AcDbEntity
  8
0
390
0
  6
Continuous
 62
     7
100
AcDbCircle
 10
-180.899883
 20
-167.816704
 30
0.0
 40
9.223048
210
0.0
220
0.0
230
1.0
100
AcDbArc
 50
245.52089
 51
265.596241
  0
LINE
  5
AB
100
AcDbEntity
  8
0
390
0
  6
Continuous
 62
     7
100
AcDbLine
 10
-184.721559
 20
-176.210715
 30
0.0
 11
-185.456198
 21
-175.865076
 31
0.0
  0
LINE
  5
AC
100
AcDbEntity
  8
0
390
0
  6
Continuous
 62
     7
100
AcDbLine
 10
-185.456198
 20
-175.865076
 30
0.0
 11
-185.456198
 21
-164.603544
 31
0.0
  0
LINE
  5
AD
100
AcDbEntity
  8
0
390
0
  6
Continuous
 62
     7
100
AcDbLine
 10
-46.7
 20
-150.293544
 30
0.0
 11
-45.587534
 21
-150.293544
 31
0.0
  0
LINE
  5
AE
100
AcDbEntity
  8
0
390
0
  6
Continuous
 62
     7
100
AcDbLine
 10
-45.587534
 20
-150.293544
 30
0.0
 11
-39.7
 21
-152.093544
 31
0.0
  0
LINE
  5
AF
100
AcDbEntity
  8
0
390
0
  6
Continuous
 62
     7
100
AcDbLine
 10
-39.7
 20
-152.093544
 30
0.0
 11
-39.7
 21
-157.293544
 31
0.0
  0
LINE
  5
B0
100
AcDbEntity
  8
0
390
0
  6
Continuous
 62
     7
100
AcDbLine
 10
-46.7
 20
-157.293544
 30
0.0
 11
-46.7
 21
-150.293544
 31
0.0
  0
LINE
  5
B1
100
AcDbEntity
  8
0
390
0
  6
Continuous
 62
     7
100
AcDbLine
 10
-46.7
 20
-150.293544
 30
0.0
 11
-45.587535
 21
-150.293544
 31
0.0
  0
LINE
  5
B2
100
AcDbEntity
  8
0
390
0
  6
Continuous
 62
     7
100
AcDbLine
 10
-45.587534
 20
-150.293544
 30
0.0
 11
-39.7
 21
-152.093544
 31
0.0
  0
LINE
  5
B3
100
AcDbEntity
  8
0
390
0
  6
Continuous
 62
     7
100
AcDbLine
 10
-39.7
 20
-152.093544
 30
0.0
 11
-39.7
 21
-157.293543
 31
0.0
  0
LINE
  5
B4
100
AcDbEntity
  8
0
390
0
  6
Continuous
 62
     7
100
AcDbLine
 10
-46.7
 20
-157.293544
 30
0.0
 11
-46.7
 21
-150.293544
 31
0.0
  0
LINE
  5
B5
100
AcDbEntity
  8
0
390
0
  6
Continuous
 62
     7
100
AcDbLine
 10
45.587535
 20
-150.293544
 30
0.0
 11
46.7
 21
-150.293544
 31
0.0
  0
LINE
  5
B6
100
AcDbEntity
  8
0
390
0
  6
Continuous
 62
     7
100
AcDbLine
 10
39.7
 20
-152.093544
 30
0.0
 11
45.587535
 21
-150.293544
 31
0.0
  0
LINE
  5
B7
100
AcDbEntity
  8
0
390
0
  6
Continuous
 62
     7
100
AcDbLine
 10
39.7
 20
-157.293544
 30
0.0
 11
39.7
 21
-152.093544
 31
0.0
  0
LINE
  5
B8
100
AcDbEntity
  8
0
390
0
  6
Continuous
 62
     7
100
AcDbLine
 10
46.7
 20
-150.293544
 30
0.0
 11
46.7
 21
-157.293544
 31
0.0
  0
LINE
  5
B9
100
AcDbEntity
  8
0
390
0
  6
Continuous
 62
     7
100
AcDbLine
 10
39.7
 20
-157.293544
 30
0.0
 11
39.7
 21
-152.093544
 31
0.0
  0
LINE
  5
BA
100
AcDbEntity
  8
0
390
0
  6
Continuous
 62
     7
100
AcDbLine
 10
39.7
 20
-152.093544
 30
0.0
 11
45.587535
 21
-150.293544
 31
0.0
  0
LINE
  5
BB
100
AcDbEntity
  8
0
390
0
  6
Continuous
 62
     7
100
AcDbLine
 10
45.587535
 20
-150.293544
 30
0.0
 11
46.7
 21
-150.293544
 31
0.0
  0
LINE
  5
BC
100
AcDbEntity
  8
0
390
0
  6
Continuous
 62
     7
100
AcDbLine
 10
46.7
 20
-150.293544
 30
0.0
 11
46.7
 21
-157.293543
 31
0.0
  0
LINE
  5
BD
100
AcDbEntity
  8
0
390
0
  6
Continuous
 62
     7
100
AcDbLine
 10
161.6
 20
-160.793544
 30
0.0
 11
179.4
 21
-160.793544
 31
0.0
  0
LINE
  5
BE
100
AcDbEntity
  8
0
390
0
  6
Continuous
 62
     7
100
AcDbLine
 10
161.6
 20
-160.793544
 30
0.0
 11
179.4
 21
-160.793544
 31
0.0
  0
LINE
  5
BF
100
AcDbEntity
  8
0
390
0
  6
Continuous
 62
     7
100
AcDbLine
 10
-195.0
 20
-159.293544
 30
0.0
 11
-195.0
 21
-157.293544
 31
0.0
  0
LINE
  5
C0
100
AcDbEntity
  8
0
390
0
  6
Continuous
 62
     7
100
AcDbLine
 10
191.0
 20
-157.293544
 30
0.0
 11
191.0
 21
-159.293544
 31
0.0
  0
LINE
  5
C1
100
AcDbEntity
  8
0
390
0
  6
Continuous
 62
     7
100
AcDbLine
 10
171.0
 20
-157.293544
 30
0.0
 11
171.0
 21
-159.293544
 31
0.0
  0
LINE
  5
C2
100
AcDbEntity
  8
0
390
0
  6
Continuous
 62
     7
100
AcDbLine
 10
191.0
 20
-157.293544
 30
0.0
 11
171.0
 21
-157.293544
 31
0.0
  0
LINE
  5
C3
100
AcDbEntity
  8
0
390
0
  6
Continuous
 62
     7
100
AcDbLine
 10
191.0
 20
-159.293544
 30
0.0
 11
191.0
 21
-157.293544
 31
0.0
  0
LINE
  5
C4
100
AcDbEntity
  8
0
390
0
  6
Continuous
 62
     7
100
AcDbLine
 10
171.0
 20
-159.293544
 30
0.0
 11
191.0
 21
-159.293544
 31
0.0
  0
LINE
  5
C5
100
AcDbEntity
  8
0
390
0
  6
Continuous
 62
     7
100
AcDbLine
 10
171.0
 20
-159.293543
 30
0.0
 11
171.0
 21
-157.293544
 31
0.0
  0
LINE
  5
C6
100
AcDbEntity
  8
0
390
0
  6
Continuous
 62
     7
100
AcDbLine
 10
-174.999999
 20
-159.293543
 30
0.0
 11
171.0
 21
-159.293543
 31
0.0
  0
LINE
  5
C7
100
AcDbEntity
  8
0
390
0
  6
Continuous
 62
     7
100
AcDbLine
 10
-174.999999
 20
-157.293544
 30
0.0
 11
-174.999999
 21
-159.293543
 31
0.0
  0
LINE
  5
C8
100
AcDbEntity
  8
0
390
0
  6
Continuous
 62
     7
100
AcDbLine
 10
171.0
 20
-157.293544
 30
0.0
 11
-174.999999
 21
-157.293544
 31
0.0
  0
LINE
  5
C9
100
AcDbEntity
  8
0
390
0
  6
Continuous
 62
     7
100
AcDbLine
 10
-195.0
 20
-157.293544
 30
0.0
 11
-195.0
 21
-159.293544
 31
0.0
  0
LINE
  5
CA
100
AcDbEntity
  8
0
390
0
  6
Continuous
 62
     7
100
AcDbLine
 10
-175.0
 20
-157.293544
 30
0.0
 11
-195.0
 21
-157.293544
 31
0.0
  0
LINE
  5
CB
100
AcDbEntity
  8
0
390
0
  6
Continuous
 62
     7
100
AcDbLine
 10
-175.0
 20
-159.293544
 30
0.0
 11
-175.0
 21
-157.293544
 31
0.0
  0
LINE
  5
CC
100
AcDbEntity
  8
0
390
0
  6
Continuous
 62
     7
100
AcDbLine
 10
-195.0
 20
-159.293544
 30
0.0
 11
-175.0
 21
-159.293544
 31
0.0
  0
LINE
  5
CD
100
AcDbEntity
  8
0
390
0
  6
Continuous
 62
     7
100
AcDbLine
 10
-175.0
 20
-159.293544
 30
0.0
 11
171.0
 21
-159.293544
 31
0.0
  0
LINE
  5
CE
100
AcDbEntity
  8
0
390
0
  6
Continuous
 62
     7
100
AcDbLine
 10
171.0
 20
-159.293544
 30
0.0
 11
191.0
 21
-159.293544
 31
0.0
  0
LINE
  5
CF
100
AcDbEntity
  8
0
390
0
  6
Continuous
 62
     7
100
AcDbLine
 10
-195.0
 20
-159.293544
 30
0.0
 11
-175.0
 21
-159.293544
 31
0.0
  0
LINE
  5
D0
100
AcDbEntity
  8
0
390
0
  6
Continuous
 62
     7
100
AcDbLine
 10
171.0
 20
-157.293544
 30
0.0
 11
191.0
 21
-157.293544
 31
0.0
  0
LINE
  5
D1
100
AcDbEntity
  8
0
390
0
  6
Continuous
 62
     7
100
AcDbLine
 10
-175.0
 20
-157.293544
 30
0.0
 11
171.0
 21
-157.293544
 31
0.0
  0
LINE
  5
D2
100
AcDbEntity
  8
0
390
0
  6
Continuous
 62
     7
100
AcDbLine
 10
-195.0
 20
-157.293544
 30
0.0
 11
-175.0
 21
-157.293544
 31
0.0
  0
POLYLINE
  5
D3
100
AcDbEntity
  8
0
390
0
  6
Continuous
 62
     7
100
AcDb2dPolyline
 66
     1
 10
0.0
 20
0.0
 30
0.0
 40
0.1
 41
0.1
  0
VERTEX
  5
D4
100
AcDbEntity
  8
0
390
0
 62
     7
100
AcDbVertex
100
AcDb2dVertex
 10
161.4
 20
-156.093544
 30
0.0
  0
VERTEX
  5
D5
100
AcDbEntity
  8
0
390
0
 62
     7
100
AcDbVertex
100
AcDb2dVertex
 10
161.4
 20
0.006456
 30
0.0
 42
0.99996
  0
VERTEX
  5
D6
100
AcDbEntity
  8
0
390
0
 62
     7
100
AcDbVertex
100
AcDb2dVertex
 10
-161.4
 20
0.006456
 30
0.0
  0
VERTEX
  5
D7
100
AcDbEntity
  8
0
390
0
 62
     7
100
AcDbVertex
100
AcDb2dVertex
 10
-161.4
 20
-156.093544
 30
0.0
  0
SEQEND
  5
D8
100
AcDbEntity
  8
0
390
0
  0
LINE
  5
D9
100
AcDbEntity
  8
0
390
0
  6
Continuous
 62
     7
100
AcDbLine
 10
180.595483
 20
-156.093544
 30
0.0
 11
164.4
 21
-156.093544
 31
0.0
  0
LINE
  5
DA
100
AcDbEntity
  8
0
390
0
  6
Continuous
 62
     7
100
AcDbLine
 10
-164.4
 20
-156.093544
 30
0.0
 11
-180.595482
 21
-156.093544
 31
0.0
  0
LINE
  5
DB
100
AcDbEntity
  8
0
390
0
  6
Continuous
 62
     7
100
AcDbLine
 10
-164.4
 20
-156.093544
 30
0.0
 11
-161.4
 21
-156.093544
 31
0.0
  0
LINE
  5
DC
100
AcDbEntity
  8
0
390
0
  6
Continuous
 62
     7
100
AcDbLine
 10
161.4
 20
-156.093544
 30
0.0
 11
164.4
 21
-156.093544
 31
0.0
  0
POLYLINE
  5
DD
100
AcDbEntity
  8
0
390
0
  6
Continuous
 62
     7
100
AcDb2dPolyline
 66
     1
 10
0.0
 20
0.0
 30
0.0
 40
0.1
 41
0.1
  0
VERTEX
  5
DE
100
AcDbEntity
  8
0
390
0
 62
     7
100
AcDbVertex
100
AcDb2dVertex
 10
164.4
 20
-156.093544
 30
0.0
  0
VERTEX
  5
DF
100
AcDbEntity
  8
0
390
0
 62
     7
100
AcDbVertex
100
AcDb2dVertex
 10
164.4
 20
-1.69145
 30
0.0
 42
1.003872
  0
VERTEX
  5
E0
100
AcDbEntity
  8
0
390
0
 62
     7
100
AcDbVertex
100
AcDb2dVertex
 10
-164.398029
 20
0.415792
 30
0.0
  0
VERTEX
  5
E1
100
AcDbEntity
  8
0
390
0
 62
     7
100
AcDbVertex
100
AcDb2dVertex
 10
-164.400005
 20
-6.928166
 30
0.0
  0
VERTEX
  5
E2
100
AcDbEntity
  8
0
390
0
 62
     7
100
AcDbVertex
100
AcDb2dVertex
 10
-164.400009
 20
-14.065963
 30
0.0
  0
VERTEX
  5
E3
100
AcDbEntity
  8
0
390
0
 62
     7
100
AcDbVertex
100
AcDb2dVertex
 10
-164.40001
 20
-38.189669
 30
0.0
  0
SEQEND
  5
E4
100
AcDbEntity
  8
0
390
0
  0
LINE
  5
E5
100
AcDbEntity
  8
0
390
0
  6
Continuous
 62
     7
100
AcDbLine
 10
-164.40001
 20
-38.189669
 30
0.0
 11
-164.4
 21
-156.093544
 31
0.0
  0
LINE
  5
E6
100
AcDbEntity
  8
0
390
0
  6
Continuous
 62
     7
100
AcDbLine
 10
164.4
 20
-156.093544
 30
0.0
 11
180.595483
 21
-156.093544
 31
0.0
  0
LINE
  5
E7
100
AcDbEntity
  8
0
390
0
  6
Continuous
 62
     7
100
AcDbLine
 10
161.4
 20
-156.093544
 30
0.0
 11
164.4
 21
-156.093544
 31
0.0
  0
LINE
  5
E8
100
AcDbEntity
  8
0
390
0
  6
Continuous
 62
     7
100
AcDbLine
 10
-180.595482
 20
-156.093544
 30
0.0
 11
-164.4
 21
-156.093544
 31
0.0
  0
LINE
  5
E9
100
AcDbEntity
  8
0
390
0
  6
Continuous
 62
     7
100
AcDbLine
 10
-164.4
 20
-156.093544
 30
0.0
 11
-161.4
 21
-156.093544
 31
0.0
  0
LINE
  5
EA
100
AcDbEntity
  8
0
390
0
  6
Continuous
 62
     7
100
AcDbLine
 10
-164.4
 20
-38.189669
 30
0.0
 11
-164.4
 21
-156.093544
 31
0.0
  0
LINE
  5
EB
100
AcDbEntity
  8
0
390
0
  6
Continuous
 62
     7
100
AcDbLine
 10
-162.75
 20
-229.603544
 30
0.0
 11
-178.25
 21
-229.603544
 31
0.0
  0
LINE
  5
EC
100
AcDbEntity
  8
0
390
0
  6
Continuous
 62
     7
100
AcDbLine
 10
-178.25
 20
-229.603544
 30
0.0
 11
-162.75
 21
-229.603544
 31
0.0
  0
LINE
  5
ED
100
AcDbEntity
  8
0
390
0
  6
Continuous
 62
     7
100
AcDbLine
 10
162.75
 20
-229.603544
 30
0.0
 11
178.25
 21
-229.603544
 31
0.0
  0
LINE
  5
EE
100
AcDbEntity
  8
0
390
0
  6
Continuous
 62
     7
100
AcDbLine
 10
162.75
 20
-229.603544
 30
0.0
 11
178.25
 21
-229.603544
 31
0.0
  0
LINE
  5
EF
100
AcDbEntity
  8
0
390
0
  6
Continuous
 62
     7
100
AcDbLine
 10
156.143642
 20
-176.243096
 30
0.0
 11
158.5
 21
-177.603544
 31
0.0
  0
LINE
  5
F0
100
AcDbEntity
  8
0
390
0
  6
Continuous
 62
     7
100
AcDbLine
 10
182.5
 20
-177.603544
 30
0.0
 11
184.856359
 21
-176.243096
 31
0.0
  0
LINE
  5
F1
100
AcDbEntity
  8
0
390
0
  6
Continuous
 62
     7
100
AcDbLine
 10
-184.856358
 20
-176.243096
 30
0.0
 11
-182.5
 21
-177.603544
 31
0.0
  0
LINE
  5
F2
100
AcDbEntity
  8
0
390
0
  6
Continuous
 62
     7
100
AcDbLine
 10
-158.5
 20
-177.603544
 30
0.0
 11
-156.143641
 21
-176.243096
 31
0.0
  0
LINE
  5
F3
100
AcDbEntity
  8
0
390
0
  6
Continuous
 62
     7
100
AcDbLine
 10
161.6
 20
-159.293544
 30
0.0
 11
161.6
 21
-160.793544
 31
0.0
  0
LINE
  5
F4
100
AcDbEntity
  8
0
390
0
  6
Continuous
 62
     7
100
AcDbLine
 10
179.4
 20
-160.793544
 30
0.0
 11
179.4
 21
-159.293544
 31
0.0
  0
POLYLINE
  5
F5
100
AcDbEntity
  8
0
390
0
  6
Continuous
 62
     7
100
AcDb2dPolyline
 66
     1
 10
0.0
 20
0.0
 30
0.0
 40
0.1
 41
0.1
  0
VERTEX
  5
F6
100
AcDbEntity
  8
0
390
0
 62
     7
100
AcDbVertex
100
AcDb2dVertex
 10
180.595483
 20
-156.093544
 30
0.0
 42
0.001418
  0
VERTEX
  5
F7
100
AcDbEntity
  8
0
390
0
 62
     7
100
AcDbVertex
100
AcDb2dVertex
 10
180.592983
 20
0.952598
 30
0.0
 42
0.998832
  0
VERTEX
  5
F8
100
AcDbEntity
  8
0
390
0
 62
     7
100
AcDbVertex
100
AcDb2dVertex
 10
-180.595482
 20
-0.527609
 30
0.0
  0
VERTEX
  5
F9
100
AcDbEntity
  8
0
390
0
 62
     7
100
AcDbVertex
100
AcDb2dVertex
 10
-180.595482
 20
-156.093544
 30
0.0
  0
SEQEND
  5
FA
100
AcDbEntity
  8
0
390
0
  0
LINE
  5
FB
100
AcDbEntity
  8
0
390
0
  6
Continuous
 62
     7
100
AcDbLine
 10
177.6
 20
-164.603544
 30
0.0
 11
177.6
 21
-160.759453
 31
0.0
  0
LINE
  5
FC
100
AcDbEntity
  8
0
390
0
  6
Continuous
 62
     7
100
AcDbLine
 10
177.6
 20
-157.2499
 30
0.0
 11
177.6
 21
-156.151202
 31
0.0
  0
LINE
  5
FD
100
AcDbEntity
  8
0
390
0
  6
Continuous
 62
     7
100
AcDbLine
 10
-177.6
 20
-156.15627
 30
0.0
 11
-177.6
 21
-157.255049
 31
0.0
  0
LINE
  5
FE
100
AcDbEntity
  8
0
390
0
  6
Continuous
 62
     7
100
AcDbLine
 10
-177.6
 20
-159.257528
 30
0.0
 11
-177.6
 21
-164.603544
 31
0.0
  0
LINE
  5
FF
100
AcDbEntity
  8
0
390
0
  6
Continuous
 62
     7
100
AcDbLine
 10
-163.4
 20
-164.603544
 30
0.0
 11
-163.4
 21
-159.256564
 31
0.0
  0
LINE
  5
100
100
AcDbEntity
  8
0
390
0
  6
Continuous
 62
     7
100
AcDbLine
 10
-163.4
 20
-157.25483
 30
0.0
 11
-163.4
 21
-156.15672
 31
0.0
  0
LINE
  5
101
100
AcDbEntity
  8
0
390
0
  6
Continuous
 62
     7
100
AcDbLine
 10
-163.4
 20
-156.15672
 30
0.0
 11
-163.4
 21
-156.056992
 31
0.0
  0
LINE
  5
102
100
AcDbEntity
  8
0
390
0
  6
Continuous
 62
     7
100
AcDbLine
 10
163.4
 20
-156.060655
 30
0.0
 11
163.4
 21
-156.160412
 31
0.0
  0
LINE
  5
103
100
AcDbEntity
  8
0
390
0
  6
Continuous
 62
     7
100
AcDbLine
 10
163.4
 20
-156.160412
 30
0.0
 11
163.4
 21
-157.25873
 31
0.0
  0
LINE
  5
104
100
AcDbEntity
  8
0
390
0
  6
Continuous
 62
     7
100
AcDbLine
 10
163.4
 20
-160.765421
 30
0.0
 11
163.4
 21
-164.603544
 31
0.0
  0
LINE
  5
105
100
AcDbEntity
  8
0
390
0
  6
Continuous
 62
     7
100
AcDbLine
 10
-178.25
 20
-177.603544
 30
0.0
 11
-178.25
 21
-229.603544
 31
0.0
  0
LINE
  5
106
100
AcDbEntity
  8
0
390
0
  6
Continuous
 62
     7
100
AcDbLine
 10
-162.75
 20
-229.603544
 30
0.0
 11
-162.75
 21
-177.603544
 31
0.0
  0
LINE
  5
107
100
AcDbEntity
  8
0
390
0
  6
Continuous
 62
     7
100
AcDbLine
 10
162.75
 20
-177.603544
 30
0.0
 11
162.75
 21
-229.603544
 31
0.0
  0
LINE
  5
108
100
AcDbEntity
  8
0
390
0
  6
Continuous
 62
     7
100
AcDbLine
 10
178.25
 20
-229.603544
 30
0.0
 11
178.25
 21
-177.603544
 31
0.0
  0
ARC
  5
109
100
AcDbEntity
  8
0
390
0
  6
Continuous
 62
     7
100
AcDbCircle
 10
170.5
 20
-420.076177
 30
0.0
 40
7.9175
210
0.0
220
0.0
230
1.0
100
AcDbArc
 50
325.09787
 51
145.09787
  0
ARC
  5
10A
100
AcDbEntity
  8
0
390
0
  6
Continuous
 62
     7
100
AcDbCircle
 10
170.5
 20
-420.076177
 30
0.0
 40
7.9175
210
0.0
220
0.0
230
1.0
100
AcDbArc
 50
145.09787
 51
325.09787
  0
ARC
  5
10B
100
AcDbEntity
  8
0
390
0
  6
Continuous
 62
     7
100
AcDbCircle
 10
170.5
 20
-420.076177
 30
0.0
 40
12.0
210
0.0
220
0.0
230
1.0
100
AcDbArc
 50
325.09787
 51
145.09787
  0
ARC
  5
10C
100
AcDbEntity
  8
0
390
0
  6
Continuous
 62
     7
100
AcDbCircle
 10
170.499969
 20
-420.076222
 30
0.0
 40
12.0
210
0.0
220
0.0
230
1.0
100
AcDbArc
 50
145.097605
 51
325.098136
  0
ARC
  5
10D
100
AcDbEntity
  8
0
390
0
  6
Continuous
 62
     7
100
AcDbCircle
 10
170.5
 20
-420.076177
 30
0.0
 40
7.9175
210
0.0
220
0.0
230
1.0
100
AcDbArc
 50
145.09787
 51
325.09787
  0
ARC
  5
10E
100
AcDbEntity
  8
0
390
0
  6
Continuous
 62
     7
100
AcDbCircle
 10
170.5
 20
-420.076177
 30
0.0
 40
7.9175
210
0.0
220
0.0
230
1.0
100
AcDbArc
 50
325.09787
 51
145.09787
  0
LINE
  5
10F
100
AcDbEntity
  8
0
390
0
  6
Continuous
 62
     7
100
AcDbLine
 10
176.867198
 20
-433.670004
 30
0.0
 11
185.456198
 21
-421.358936
 31
0.0
  0
LINE
  5
110
100
AcDbEntity
  8
0
390
0
  6
Continuous
 62
     7
100
AcDbLine
 10
161.911
 20
-432.387245
 30
0.0
 11
176.867197
 21
-433.670004
 31
0.0
  0
LINE
  5
111
100
AcDbEntity
  8
0
390
0
  6
Continuous
 62
     7
100
AcDbLine
 10
155.543803
 20
-418.793418
 30
0.0
 11
157.120235
 21
-422.159067
 31
0.0
  0
LINE
  5
112
100
AcDbEntity
  8
0
390
0
  6
Continuous
 62
     7
100
AcDbLine
 10
157.120235
 20
-422.159067
 30
0.0
 11
161.911
 21
-432.387244
 31
0.0
  0
LINE
  5
113
100
AcDbEntity
  8
0
390
0
  6
Continuous
 62
     7
100
AcDbLine
 10
159.838302
 20
-412.637884
 30
0.0
 11
155.543803
 21
-418.793418
 31
0.0
  0
LINE
  5
114
100
AcDbEntity
  8
0
390
0
  6
Continuous
 62
     7
100
AcDbLine
 10
164.132802
 20
-406.482351
 30
0.0
 11
159.838302
 21
-412.637884
 31
0.0
  0
LINE
  5
115
100
AcDbEntity
  8
0
390
0
  6
Continuous
 62
     7
100
AcDbLine
 10
179.089001
 20
-407.765109
 30
0.0
 11
164.132803
 21
-406.48235
 31
0.0
  0
LINE
  5
116
100
AcDbEntity
  8
0
390
0
  6
Continuous
 62
     7
100
AcDbLine
 10
185.456198
 20
-421.358936
 30
0.0
 11
183.879766
 21
-417.993287
 31
0.0
  0
LINE
  5
117
100
AcDbEntity
  8
0
390
0
  6
Continuous
 62
     7
100
AcDbLine
 10
183.879766
 20
-417.993287
 30
0.0
 11
179.089001
 21
-407.765109
 31
0.0
  0
ARC
  5
118
100
AcDbEntity
  8
0
390
0
  6
Continuous
 62
     7
100
AcDbCircle
 10
170.5
 20
-420.076177
 30
0.0
 40
12.0
210
0.0
220
0.0
230
1.0
100
AcDbArc
 50
325.09787
 51
145.09787
  0
ARC
  5
119
100
AcDbEntity
  8
0
390
0
  6
Continuous
 62
     7
100
AcDbCircle
 10
170.5
 20
-420.076177
 30
0.0
 40
12.0
210
0.0
220
0.0
230
1.0
100
AcDbArc
 50
145.09787
 51
325.09787
  0
LINE
  5
11A
100
AcDbEntity
  8
0
390
0
  6
Continuous
 62
     7
100
AcDbLine
 10
155.543802
 20
-418.793418
 30
0.0
 11
157.120235
 21
-422.159067
 31
0.0
  0
LINE
  5
11B
100
AcDbEntity
  8
0
390
0
  6
Continuous
 62
     7
100
AcDbLine
 10
157.120235
 20
-422.159067
 30
0.0
 11
161.911
 21
-432.387245
 31
0.0
  0
LINE
  5
11C
100
AcDbEntity
  8
0
390
0
  6
Continuous
 62
     7
100
AcDbLine
 10
161.911
 20
-432.387245
 30
0.0
 11
176.867198
 21
-433.670004
 31
0.0
  0
LINE
  5
11D
100
AcDbEntity
  8
0
390
0
  6
Continuous
 62
     7
100
AcDbLine
 10
176.867198
 20
-433.670004
 30
0.0
 11
185.456199
 21
-421.358935
 31
0.0
  0
LINE
  5
11E
100
AcDbEntity
  8
0
390
0
  6
Continuous
 62
     7
100
AcDbLine
 10
185.456199
 20
-421.358935
 30
0.0
 11
183.879766
 21
-417.993287
 31
0.0
  0
LINE
  5
11F
100
AcDbEntity
  8
0
390
0
  6
Continuous
 62
     7
100
AcDbLine
 10
183.879766
 20
-417.993287
 30
0.0
 11
179.089001
 21
-407.765109
 31
0.0
  0
LINE
  5
120
100
AcDbEntity
  8
0
390
0
  6
Continuous
 62
     7
100
AcDbLine
 10
179.089001
 20
-407.765109
 30
0.0
 11
164.132803
 21
-406.48235
 31
0.0
  0
LINE
  5
121
100
AcDbEntity
  8
0
390
0
  6
Continuous
 62
     7
100
AcDbLine
 10
164.132803
 20
-406.48235
 30
0.0
 11
159.895238
 21
-412.556275
 31
0.0
  0
LINE
  5
122
100
AcDbEntity
  8
0
390
0
  6
Continuous
 62
     7
100
AcDbLine
 10
159.895238
 20
-412.556275
 30
0.0
 11
159.838313
 21
-412.637869
 31
0.0
  0
LINE
  5
123
100
AcDbEntity
  8
0
390
0
  6
Continuous
 62
     7
100
AcDbLine
 10
159.838313
 20
-412.637869
 30
0.0
 11
159.781386
 21
-412.719465
 31
0.0
  0
LINE
  5
124
100
AcDbEntity
  8
0
390
0
  6
Continuous
 62
     7
100
AcDbLine
 10
159.781386
 20
-412.719465
 30
0.0
 11
155.543802
 21
-418.793418
 31
0.0
  0
ARC
  5
125
100
AcDbEntity
  8
0
390
0
  6
Continuous
 62
     7
100
AcDbCircle
 10
-170.5
 20
-420.076177
 30
0.0
 40
7.9175
210
0.0
220
0.0
230
1.0
100
AcDbArc
 50
145.09787
 51
325.09787
  0
ARC
  5
126
100
AcDbEntity
  8
0
390
0
  6
Continuous
 62
     7
100
AcDbCircle
 10
-170.5
 20
-420.076177
 30
0.0
 40
7.9175
210
0.0
220
0.0
230
1.0
100
AcDbArc
 50
325.09787
 51
145.09787
  0
ARC
  5
127
100
AcDbEntity
  8
0
390
0
  6
Continuous
 62
     7
100
AcDbCircle
 10
-170.5
 20
-420.076177
 30
0.0
 40
12.0
210
0.0
220
0.0
230
1.0
100
AcDbArc
 50
325.09787
 51
145.09787
  0
ARC
  5
128
100
AcDbEntity
  8
0
390
0
  6
Continuous
 62
     7
100
AcDbCircle
 10
-170.500031
 20
-420.076222
 30
0.0
 40
12.0
210
0.0
220
0.0
230
1.0
100
AcDbArc
 50
145.097605
 51
325.098136
  0
ARC
  5
129
100
AcDbEntity
  8
0
390
0
  6
Continuous
 62
     7
100
AcDbCircle
 10
-170.5
 20
-420.076177
 30
0.0
 40
7.9175
210
0.0
220
0.0
230
1.0
100
AcDbArc
 50
145.09787
 51
325.09787
  0
ARC
  5
12A
100
AcDbEntity
  8
0
390
0
  6
Continuous
 62
     7
100
AcDbCircle
 10
-170.499855
 20
-420.07597
 30
0.0
 40
7.9175
210
0.0
220
0.0
230
1.0
100
AcDbArc
 50
325.096044
 51
145.099697
  0
LINE
  5
12B
100
AcDbEntity
  8
0
390
0
  6
Continuous
 62
     7
100
AcDbLine
 10
-176.867198
 20
-406.482351
 30
0.0
 11
-181.161698
 21
-412.637884
 31
0.0
  0
ARC
  5
12C
100
AcDbEntity
  8
0
390
0
  6
Continuous
 62
     7
100
AcDbCircle
 10
-170.5
 20
-420.076177
 30
0.0
 40
12.0
210
0.0
220
0.0
230
1.0
100
AcDbArc
 50
325.09787
 51
145.09787
  0
ARC
  5
12D
100
AcDbEntity
  8
0
390
0
  6
Continuous
 62
     7
100
AcDbCircle
 10
-170.5
 20
-420.076177
 30
0.0
 40
12.0
210
0.0
220
0.0
230
1.0
100
AcDbArc
 50
145.09787
 51
325.09787
  0
LINE
  5
12E
100
AcDbEntity
  8
0
390
0
  6
Continuous
 62
     7
100
AcDbLine
 10
-181.161698
 20
-412.637884
 30
0.0
 11
-185.456197
 21
-418.793418
 31
0.0
  0
LINE
  5
12F
100
AcDbEntity
  8
0
390
0
  6
Continuous
 62
     7
100
AcDbLine
 10
-185.456197
 20
-418.793418
 30
0.0
 11
-183.879765
 21
-422.159067
 31
0.0
  0
LINE
  5
130
100
AcDbEntity
  8
0
390
0
  6
Continuous
 62
     7
100
AcDbLine
 10
-183.879765
 20
-422.159067
 30
0.0
 11
-179.089
 21
-432.387244
 31
0.0
  0
LINE
  5
131
100
AcDbEntity
  8
0
390
0
  6
Continuous
 62
     7
100
AcDbLine
 10
-179.089
 20
-432.387245
 30
0.0
 11
-164.132803
 21
-433.670004
 31
0.0
  0
LINE
  5
132
100
AcDbEntity
  8
0
390
0
  6
Continuous
 62
     7
100
AcDbLine
 10
-164.132802
 20
-433.670004
 30
0.0
 11
-155.543802
 21
-421.358936
 31
0.0
  0
LINE
  5
133
100
AcDbEntity
  8
0
390
0
  6
Continuous
 62
     7
100
AcDbLine
 10
-155.543802
 20
-421.358936
 30
0.0
 11
-157.120234
 21
-417.993287
 31
0.0
  0
LINE
  5
134
100
AcDbEntity
  8
0
390
0
  6
Continuous
 62
     7
100
AcDbLine
 10
-157.120234
 20
-417.993287
 30
0.0
 11
-161.910999
 21
-407.765109
 31
0.0
  0
LINE
  5
135
100
AcDbEntity
  8
0
390
0
  6
Continuous
 62
     7
100
AcDbLine
 10
-161.910999
 20
-407.765109
 30
0.0
 11
-176.867197
 21
-406.48235
 31
0.0
  0
LINE
  5
136
100
AcDbEntity
  8
0
390
0
  6
Continuous
 62
     7
100
AcDbLine
 10
-185.456198
 20
-418.793418
 30
0.0
 11
-183.879765
 21
-422.159067
 31
0.0
  0
LINE
  5
137
100
AcDbEntity
  8
0
390
0
  6
Continuous
 62
     7
100
AcDbLine
 10
-183.879765
 20
-422.159067
 30
0.0
 11
-179.089
 21
-432.387245
 31
0.0
  0
LINE
  5
138
100
AcDbEntity
  8
0
390
0
  6
Continuous
 62
     7
100
AcDbLine
 10
-179.089
 20
-432.387245
 30
0.0
 11
-164.132802
 21
-433.670004
 31
0.0
  0
LINE
  5
139
100
AcDbEntity
  8
0
390
0
  6
Continuous
 62
     7
100
AcDbLine
 10
-164.132802
 20
-433.670004
 30
0.0
 11
-155.543801
 21
-421.358935
 31
0.0
  0
LINE
  5
13A
100
AcDbEntity
  8
0
390
0
  6
Continuous
 62
     7
100
AcDbLine
 10
-155.543801
 20
-421.358935
 30
0.0
 11
-157.120234
 21
-417.993287
 31
0.0
  0
LINE
  5
13B
100
AcDbEntity
  8
0
390
0
  6
Continuous
 62
     7
100
AcDbLine
 10
-157.120234
 20
-417.993287
 30
0.0
 11
-161.910999
 21
-407.765109
 31
0.0
  0
LINE
  5
13C
100
AcDbEntity
  8
0
390
0
  6
Continuous
 62
     7
100
AcDbLine
 10
-161.910999
 20
-407.765109
 30
0.0
 11
-176.867197
 21
-406.48235
 31
0.0
  0
LINE
  5
13D
100
AcDbEntity
  8
0
390
0
  6
Continuous
 62
     7
100
AcDbLine
 10
-176.867197
 20
-406.48235
 30
0.0
 11
-181.104762
 21
-412.556275
 31
0.0
  0
LINE
  5
13E
100
AcDbEntity
  8
0
390
0
  6
Continuous
 62
     7
100
AcDbLine
 10
-181.104762
 20
-412.556275
 30
0.0
 11
-181.161687
 21
-412.637869
 31
0.0
  0
LINE
  5
13F
100
AcDbEntity
  8
0
390
0
  6
Continuous
 62
     7
100
AcDbLine
 10
-181.161687
 20
-412.637869
 30
0.0
 11
-181.218614
 21
-412.719465
 31
0.0
  0
LINE
  5
140
100
AcDbEntity
  8
0
390
0
  6
Continuous
 62
     7
100
AcDbLine
 10
-181.218614
 20
-412.719465
 30
0.0
 11
-185.456198
 21
-418.793418
 31
0.0
  0
LINE
  5
141
100
AcDbEntity
  8
0
390
0
  6
Continuous
 62
     7
100
AcDbLine
 10
45.2
 20
-404.076177
 30
0.0
 11
41.2
 21
-404.076177
 31
0.0
  0
LINE
  5
142
100
AcDbEntity
  8
0
390
0
  6
Continuous
 62
     7
100
AcDbLine
 10
45.2
 20
-436.076177
 30
0.0
 11
41.2
 21
-436.076177
 31
0.0
  0
LINE
  5
143
100
AcDbEntity
  8
0
390
0
  6
Continuous
 62
     7
100
AcDbLine
 10
41.2
 20
-436.076177
 30
0.0
 11
41.2
 21
-404.076177
 31
0.0
  0
LINE
  5
144
100
AcDbEntity
  8
0
390
0
  6
Continuous
 62
     7
100
AcDbLine
 10
45.2
 20
-404.076177
 30
0.0
 11
45.2
 21
-436.076177
 31
0.0
  0
LINE
  5
145
100
AcDbEntity
  8
0
390
0
  6
Continuous
 62
     7
100
AcDbLine
 10
-41.2
 20
-404.076177
 30
0.0
 11
-45.2
 21
-404.076177
 31
0.0
  0
LINE
  5
146
100
AcDbEntity
  8
0
390
0
  6
Continuous
 62
     7
100
AcDbLine
 10
-41.2
 20
-436.076177
 30
0.0
 11
-45.2
 21
-436.076177
 31
0.0
  0
LINE
  5
147
100
AcDbEntity
  8
0
390
0
  6
Continuous
 62
     7
100
AcDbLine
 10
-41.2
 20
-404.076177
 30
0.0
 11
-41.2
 21
-436.076177
 31
0.0
  0
LINE
  5
148
100
AcDbEntity
  8
0
390
0
  6
Continuous
 62
     7
100
AcDbLine
 10
-45.2
 20
-436.076177
 30
0.0
 11
-45.2
 21
-404.076177
 31
0.0
  0
ARC
  5
149
100
AcDbEntity
  8
0
390
0
  6
Continuous
 62
     7
100
AcDbCircle
 10
-175.0
 20
-420.076177
 30
0.0
 40
20.0
210
0.0
220
0.0
230
1.0
100
AcDbArc
 50
180.0
 51
270.0
  0
LINE
  5
14A
100
AcDbEntity
  8
0
390
0
  6
Continuous
 62
     7
100
AcDbLine
 10
171.0
 20
-440.076177
 30
0.0
 11
-174.999999
 21
-440.076177
 31
0.0
  0
ARC
  5
14B
100
AcDbEntity
  8
0
390
0
  6
Continuous
 62
     7
100
AcDbCircle
 10
171.0
 20
-420.076177
 30
0.0
 40
20.0
210
0.0
220
0.0
230
1.0
100
AcDbArc
 50
270.0
 51
360.0
  0
ARC
  5
14C
100
AcDbEntity
  8
0
390
0
  6
Continuous
 62
     7
100
AcDbCircle
 10
171.0
 20
-420.076177
 30
0.0
 40
20.0
210
0.0
220
0.0
230
1.0
100
AcDbArc
 50
0.0
 51
90.0
  0
LINE
  5
14D
100
AcDbEntity
  8
0
390
0
  6
Continuous
 62
     7
100
AcDbLine
 10
-174.999999
 20
-400.076177
 30
0.0
 11
171.0
 21
-400.076177
 31
0.0
  0
ARC
  5
14E
100
AcDbEntity
  8
0
390
0
  6
Continuous
 62
     7
100
AcDbCircle
 10
-175.0
 20
-420.076177
 30
0.0
 40
20.0
210
0.0
220
0.0
230
1.0
100
AcDbArc
 50
90.0
 51
180.0
  0
LINE
  5
14F
100
AcDbEntity
  8
0
390
0
  6
Continuous
 62
     7
100
AcDbLine
 10
-175.0
 20
-400.076177
 30
0.0
 11
171.0
 21
-400.076177
 31
0.0
  0
ARC
  5
150
100
AcDbEntity
  8
0
390
0
  6
Continuous
 62
     7
100
AcDbCircle
 10
171.0
 20
-420.076177
 30
0.0
 40
20.0
210
0.0
220
0.0
230
1.0
100
AcDbArc
 50
0.0
 51
90.0
  0
ARC
  5
151
100
AcDbEntity
  8
0
390
0
  6
Continuous
 62
     7
100
AcDbCircle
 10
171.0
 20
-420.076177
 30
0.0
 40
20.0
210
0.0
220
0.0
230
1.0
100
AcDbArc
 50
270.0
 51
360.0
  0
LINE
  5
152
100
AcDbEntity
  8
0
390
0
  6
Continuous
 62
     7
100
AcDbLine
 10
171.0
 20
-440.076177
 30
0.0
 11
-175.0
 21
-440.076177
 31
0.0
  0
ARC
  5
153
100
AcDbEntity
  8
0
390
0
  6
Continuous
 62
     7
100
AcDbCircle
 10
-175.0
 20
-420.076177
 30
0.0
 40
20.0
210
0.0
220
0.0
230
1.0
100
AcDbArc
 50
180.0
 51
270.0
  0
ARC
  5
154
100
AcDbEntity
  8
0
390
0
  6
Continuous
 62
     7
100
AcDbCircle
 10
-175.0
 20
-420.076177
 30
0.0
 40
20.0
210
0.0
220
0.0
230
1.0
100
AcDbArc
 50
90.0
 51
180.0
  0
LINE
  5
155
100
AcDbEntity
  8
0
390
0
  6
Continuous
 62
     7
100
AcDbLine
 10
45.2
 20
-404.076177
 30
0.0
 11
41.2
 21
-404.076177
 31
0.0
  0
LINE
  5
156
100
AcDbEntity
  8
0
390
0
  6
Continuous
 62
     7
100
AcDbLine
 10
41.2
 20
-404.076177
 30
0.0
 11
41.2
 21
-436.076177
 31
0.0
  0
LINE
  5
157
100
AcDbEntity
  8
0
390
0
  6
Continuous
 62
     7
100
AcDbLine
 10
41.2
 20
-436.076177
 30
0.0
 11
45.2
 21
-436.076177
 31
0.0
  0
LINE
  5
158
100
AcDbEntity
  8
0
390
0
  6
Continuous
 62
     7
100
AcDbLine
 10
45.2
 20
-436.076177
 30
0.0
 11
45.2
 21
-404.076177
 31
0.0
  0
LINE
  5
159
100
AcDbEntity
  8
0
390
0
  6
Continuous
 62
     7
100
AcDbLine
 10
-41.2
 20
-404.076177
 30
0.0
 11
-45.2
 21
-404.076177
 31
0.0
  0
LINE
  5
15A
100
AcDbEntity
  8
0
390
0
  6
Continuous
 62
     7
100
AcDbLine
 10
-45.2
 20
-404.076177
 30
0.0
 11
-45.2
 21
-436.076177
 31
0.0
  0
LINE
  5
15B
100
AcDbEntity
  8
0
390
0
  6
Continuous
 62
     7
100
AcDbLine
 10
-45.2
 20
-436.076177
 30
0.0
 11
-41.2
 21
-436.076177
 31
0.0
  0
LINE
  5
15C
100
AcDbEntity
  8
0
390
0
  6
Continuous
 62
     7
100
AcDbLine
 10
-41.2
 20
-436.076177
 30
0.0
 11
-41.2
 21
-404.076177
 31
0.0
  0
CIRCLE
  5
15D
100
AcDbEntity
  8
0
390
0
  6
Continuous
 62
     7
100
AcDbCircle
 10
-170.499774
 20
-420.070571
 30
0.0
 40
7.750228
210
0.0
220
0.0
230
0.9999999999999999
  0
LINE
  5
15E
100
AcDbEntity
  8
0
390
0
  6
Continuous
 62
     7
100
AcDbLine
 10
-178.25
 20
-420.076177
 30
0.0
 11
-178.227414
 21
-419.484941
 31
0.0
  0
ARC
  5
15F
100
AcDbEntity
  8
0
390
0
  6
Continuous
 62
     7
100
AcDbCircle
 10
-170.5
 20
-420.076177
 30
0.0
 40
7.75
210
0.0
220
0.0
230
0.9999999999999999
100
AcDbArc
 50
180.0
 51
175.624743
  0
CIRCLE
  5
160
100
AcDbEntity
  8
0
390
0
  6
Continuous
 62
     7
100
AcDbCircle
 10
170.5
 20
-420.081787
 30
0.0
 40
7.750002
210
0.0
220
0.0
230
0.9999999999999999
  0
CIRCLE
  5
161
100
AcDbEntity
  8
0
390
0
  6
Continuous
 62
     7
100
AcDbCircle
 10
170.5
 20
-420.076177
 30
0.0
 40
7.75
210
0.0
220
0.0
230
0.9999999999999999
  0
LINE
  5
162
100
AcDbEntity
  8
0
390
0
  6
Continuous
 62
     7
100
AcDbLine
 10
506.519978
 20
-177.603544
 30
0.0
 11
511.552899
 21
-177.603544
 31
0.0
  0
LINE
  5
163
100
AcDbEntity
  8
0
390
0
  6
Continuous
 62
     7
100
AcDbLine
 10
511.552899
 20
-177.603544
 30
0.0
 11
511.752403
 21
-177.603544
 31
0.0
  0
LINE
  5
164
100
AcDbEntity
  8
0
390
0
  6
Continuous
 62
     7
100
AcDbLine
 10
511.752403
 20
-177.603544
 30
0.0
 11
525.287073
 21
-177.603544
 31
0.0
  0
LINE
  5
165
100
AcDbEntity
  8
0
390
0
  6
Continuous
 62
     7
100
AcDbLine
 10
525.287073
 20
-177.603544
 30
0.0
 11
525.386105
 21
-177.603544
 31
0.0
  0
LINE
  5
166
100
AcDbEntity
  8
0
390
0
  6
Continuous
 62
     7
100
AcDbLine
 10
525.386105
 20
-177.603544
 30
0.0
 11
525.487454
 21
-177.603544
 31
0.0
  0
LINE
  5
167
100
AcDbEntity
  8
0
390
0
  6
Continuous
 62
     7
100
AcDbLine
 10
525.487454
 20
-177.603544
 30
0.0
 11
530.52
 21
-177.603544
 31
0.0
  0
LINE
  5
168
100
AcDbEntity
  8
0
390
0
  6
Continuous
 62
     7
100
AcDbLine
 10
531.567275
 20
-176.998892
 30
0.0
 11
531.669866
 21
-176.908217
 31
0.0
  0
LINE
  5
169
100
AcDbEntity
  8
0
390
0
  6
Continuous
 62
     7
100
AcDbLine
 10
531.669866
 20
-176.908217
 30
0.0
 11
532.113816
 21
-175.865076
 31
0.0
  0
LINE
  5
16A
100
AcDbEntity
  8
0
390
0
  6
Continuous
 62
     7
100
AcDbLine
 10
505.472705
 20
-176.998893
 30
0.0
 11
505.364743
 21
-176.901783
 31
0.0
  0
LINE
  5
16B
100
AcDbEntity
  8
0
390
0
  6
Continuous
 62
     7
100
AcDbLine
 10
505.364743
 20
-176.901783
 30
0.0
 11
505.133448
 21
-176.472929
 31
0.0
  0
LINE
  5
16C
100
AcDbEntity
  8
0
390
0
  6
Continuous
 62
     7
100
AcDbLine
 10
505.133448
 20
-176.472929
 30
0.0
 11
504.926163
 21
-175.865076
 31
0.0
  0
LINE
  5
16D
100
AcDbEntity
  8
0
390
0
  6
Continuous
 62
     7
100
AcDbLine
 10
506.519989
 20
-177.603544
 30
0.0
 11
511.753218
 21
-177.603544
 31
0.0
  0
LINE
  5
16E
100
AcDbEntity
  8
0
390
0
  6
Continuous
 62
     7
100
AcDbLine
 10
511.753218
 20
-177.603544
 30
0.0
 11
525.386105
 21
-177.603544
 31
0.0
  0
LINE
  5
16F
100
AcDbEntity
  8
0
390
0
  6
Continuous
 62
     7
100
AcDbLine
 10
525.386105
 20
-177.603544
 30
0.0
 11
530.519989
 21
-177.603544
 31
0.0
  0
ARC
  5
170
100
AcDbEntity
  8
0
390
0
  6
Continuous
 62
     7
100
AcDbCircle
 10
525.958282
 20
-160.129175
 30
0.0
 40
16.897017
210
0.0
220
0.0
230
1.0
100
AcDbArc
 50
248.635671
 51
291.364331
  0
ARC
  5
171
100
AcDbEntity
  8
0
390
0
  6
Continuous
 62
     7
100
AcDbCircle
 10
513.049358
 20
-156.717092
 30
0.0
 40
20.304029
210
0.0
220
0.0
230
1.0
100
AcDbArc
 50
253.741036
 51
289.427469
  0
LINE
  5
172
100
AcDbEntity
  8
0
390
0
  6
Continuous
 62
     7
100
AcDbLine
 10
507.364652
 20
-176.209083
 30
0.0
 11
506.208922
 21
-175.865076
 31
0.0
  0
LINE
  5
173
100
AcDbEntity
  8
0
390
0
  6
Continuous
 62
     7
100
AcDbLine
 10
506.208922
 20
-175.865076
 30
0.0
 11
505.891327
 21
-176.71389
 31
0.0
  0
POLYLINE
  5
174
100
AcDbEntity
  8
0
390
0
  6
Continuous
 62
     7
100
AcDb2dPolyline
 66
     1
 10
0.0
 20
0.0
 30
0.0
 40
0.1
 41
0.1
  0
VERTEX
  5
175
100
AcDbEntity
  8
0
390
0
 62
     7
100
AcDbVertex
100
AcDb2dVertex
 10
505.891327
 20
-176.71389
 30
0.0
  0
VERTEX
  5
176
100
AcDbEntity
  8
0
390
0
 62
     7
100
AcDbVertex
100
AcDb2dVertex
 10
505.782435
 20
-176.887781
 30
0.0
  0
VERTEX
  5
177
100
AcDbEntity
  8
0
390
0
 62
     7
100
AcDbVertex
100
AcDb2dVertex
 10
505.67444
 20
-176.992024
 30
0.0
  0
VERTEX
  5
178
100
AcDbEntity
  8
0
390
0
 62
     7
100
AcDbVertex
100
AcDb2dVertex
 10
505.566316
 20
-177.026187
 30
0.0
  0
SEQEND
  5
179
100
AcDbEntity
  8
0
390
0
  0
LINE
  5
17A
100
AcDbEntity
  8
0
390
0
  6
Continuous
 62
     7
100
AcDbLine
 10
505.566316
 20
-177.026187
 30
0.0
 11
505.472705
 21
-176.998893
 31
0.0
  0
LINE
  5
17B
100
AcDbEntity
  8
0
390
0
  6
Continuous
 62
     7
100
AcDbLine
 10
504.926162
 20
-164.603544
 30
0.0
 11
506.208921
 21
-164.603544
 31
0.0
  0
LINE
  5
17C
100
AcDbEntity
  8
0
390
0
  6
Continuous
 62
     7
100
AcDbLine
 10
506.208921
 20
-164.603544
 30
0.0
 11
519.802748
 21
-164.603544
 31
0.0
  0
LINE
  5
17D
100
AcDbEntity
  8
0
390
0
  6
Continuous
 62
     7
100
AcDbLine
 10
519.802748
 20
-164.603544
 30
0.0
 11
532.113816
 21
-164.603544
 31
0.0
  0
LINE
  5
17E
100
AcDbEntity
  8
0
390
0
  6
Continuous
 62
     7
100
AcDbLine
 10
532.113816
 20
-175.865076
 30
0.0
 11
532.113816
 21
-164.603544
 31
0.0
  0
LINE
  5
17F
100
AcDbEntity
  8
0
390
0
  6
Continuous
 62
     7
100
AcDbLine
 10
531.593505
 20
-176.98141
 30
0.0
 11
531.669898
 21
-176.908191
 31
0.0
  0
LINE
  5
180
100
AcDbEntity
  8
0
390
0
  6
Continuous
 62
     7
100
AcDbLine
 10
531.669898
 20
-176.908191
 30
0.0
 11
532.113816
 21
-175.865076
 31
0.0
  0
LINE
  5
181
100
AcDbEntity
  8
0
390
0
  6
Continuous
 62
     7
100
AcDbLine
 10
532.113816
 20
-164.603544
 30
0.0
 11
532.113816
 21
-175.865076
 31
0.0
  0
LINE
  5
182
100
AcDbEntity
  8
0
390
0
  6
Continuous
 62
     7
100
AcDbLine
 10
519.802748
 20
-164.603544
 30
0.0
 11
532.113816
 21
-164.603544
 31
0.0
  0
LINE
  5
183
100
AcDbEntity
  8
0
390
0
  6
Continuous
 62
     7
100
AcDbLine
 10
519.802748
 20
-175.865076
 30
0.0
 11
519.802748
 21
-164.603544
 31
0.0
  0
ARC
  5
184
100
AcDbEntity
  8
0
390
0
  6
Continuous
 62
     7
100
AcDbCircle
 10
525.958282
 20
-160.129175
 30
0.0
 40
16.897017
210
0.0
220
0.0
230
1.0
100
AcDbArc
 50
248.635669
 51
291.364331
  0
LINE
  5
185
100
AcDbEntity
  8
0
390
0
  6
Continuous
 62
     7
100
AcDbLine
 10
506.208921
 20
-164.603544
 30
0.0
 11
519.802748
 21
-164.603544
 31
0.0
  0
LINE
  5
186
100
AcDbEntity
  8
0
390
0
  6
Continuous
 62
     7
100
AcDbLine
 10
519.802748
 20
-164.603544
 30
0.0
 11
519.802748
 21
-175.865076
 31
0.0
  0
ARC
  5
187
100
AcDbEntity
  8
0
390
0
  6
Continuous
 62
     7
100
AcDbCircle
 10
513.052857
 20
-156.827608
 30
0.0
 40
20.198668
210
0.0
220
0.0
230
1.0
100
AcDbArc
 50
253.643187
 51
289.52238
  0
LINE
  5
188
100
AcDbEntity
  8
0
390
0
  6
Continuous
 62
     7
100
AcDbLine
 10
507.364543
 20
-176.208766
 30
0.0
 11
506.208921
 21
-175.865076
 31
0.0
  0
LINE
  5
189
100
AcDbEntity
  8
0
390
0
  6
Continuous
 62
     7
100
AcDbLine
 10
506.208921
 20
-175.865076
 30
0.0
 11
506.208921
 21
-164.603544
 31
0.0
  0
LINE
  5
18A
100
AcDbEntity
  8
0
390
0
  6
Continuous
 62
     7
100
AcDbLine
 10
504.926162
 20
-164.603544
 30
0.0
 11
506.208921
 21
-164.603544
 31
0.0
  0
LINE
  5
18B
100
AcDbEntity
  8
0
390
0
  6
Continuous
 62
     7
100
AcDbLine
 10
506.208921
 20
-164.603544
 30
0.0
 11
506.208921
 21
-175.865076
 31
0.0
  0
LINE
  5
18C
100
AcDbEntity
  8
0
390
0
  6
Continuous
 62
     7
100
AcDbLine
 10
506.208921
 20
-175.865076
 30
0.0
 11
505.891327
 21
-176.71389
 31
0.0
  0
LINE
  5
18D
100
AcDbEntity
  8
0
390
0
  6
Continuous
 62
     7
100
AcDbLine
 10
505.460023
 20
-176.990815
 30
0.0
 11
505.446466
 21
-176.981405
 31
0.0
  0
LINE
  5
18E
100
AcDbEntity
  8
0
390
0
  6
Continuous
 62
     7
100
AcDbLine
 10
505.446466
 20
-176.981405
 30
0.0
 11
505.364721
 21
-176.901782
 31
0.0
  0
LINE
  5
18F
100
AcDbEntity
  8
0
390
0
  6
Continuous
 62
     7
100
AcDbLine
 10
505.364721
 20
-176.901782
 30
0.0
 11
505.133507
 21
-176.473457
 31
0.0
  0
LINE
  5
190
100
AcDbEntity
  8
0
390
0
  6
Continuous
 62
     7
100
AcDbLine
 10
505.133507
 20
-176.473457
 30
0.0
 11
504.926162
 21
-175.865076
 31
0.0
  0
LINE
  5
191
100
AcDbEntity
  8
0
390
0
  6
Continuous
 62
     7
100
AcDbLine
 10
504.926162
 20
-175.865076
 30
0.0
 11
504.926162
 21
-164.603544
 31
0.0
  0
LINE
  5
192
100
AcDbEntity
  8
0
390
0
  6
Continuous
 62
     7
100
AcDbLine
 10
504.926162
 20
-164.603544
 30
0.0
 11
504.926162
 21
-175.865076
 31
0.0
  0
LINE
  5
193
100
AcDbEntity
  8
0
390
0
  6
Continuous
 62
     7
100
AcDbLine
 10
501.019989
 20
-156.093544
 30
0.0
 11
501.019989
 21
-157.293544
 31
0.0
  0
LINE
  5
194
100
AcDbEntity
  8
0
390
0
  6
Continuous
 62
     7
100
AcDbLine
 10
536.019989
 20
-156.093544
 30
0.0
 11
536.019989
 21
-157.293544
 31
0.0
  0
LINE
  5
195
100
AcDbEntity
  8
0
390
0
  6
Continuous
 62
     7
100
AcDbLine
 10
536.019989
 20
-157.293543
 30
0.0
 11
536.019989
 21
-156.093544
 31
0.0
  0
LINE
  5
196
100
AcDbEntity
  8
0
390
0
  6
Continuous
 62
     7
100
AcDbLine
 10
501.019989
 20
-156.093544
 30
0.0
 11
501.019989
 21
-157.293543
 31
0.0
  0
LINE
  5
197
100
AcDbEntity
  8
0
390
0
  6
Continuous
 62
     7
100
AcDbLine
 10
509.619989
 20
-160.793544
 30
0.0
 11
518.519989
 21
-160.793544
 31
0.0
  0
LINE
  5
198
100
AcDbEntity
  8
0
390
0
  6
Continuous
 62
     7
100
AcDbLine
 10
518.519989
 20
-160.793544
 30
0.0
 11
527.419989
 21
-160.793544
 31
0.0
  0
LINE
  5
199
100
AcDbEntity
  8
0
390
0
  6
Continuous
 62
     7
100
AcDbLine
 10
509.619989
 20
-160.793544
 30
0.0
 11
518.519989
 21
-160.793544
 31
0.0
  0
LINE
  5
19A
100
AcDbEntity
  8
0
390
0
  6
Continuous
 62
     7
100
AcDbLine
 10
518.519989
 20
-160.793544
 30
0.0
 11
527.419989
 21
-160.793544
 31
0.0
  0
LINE
  5
19B
100
AcDbEntity
  8
0
390
0
  6
Continuous
 62
     7
100
AcDbLine
 10
538.519989
 20
-157.293544
 30
0.0
 11
538.519989
 21
-159.293543
 31
0.0
  0
LINE
  5
19C
100
AcDbEntity
  8
0
390
0
  6
Continuous
 62
     7
100
AcDbLine
 10
518.519989
 20
-157.293544
 30
0.0
 11
518.519989
 21
-159.293544
 31
0.0
  0
LINE
  5
19D
100
AcDbEntity
  8
0
390
0
  6
Continuous
 62
     7
100
AcDbLine
 10
538.519989
 20
-157.293544
 30
0.0
 11
518.519989
 21
-157.293544
 31
0.0
  0
LINE
  5
19E
100
AcDbEntity
  8
0
390
0
  6
Continuous
 62
     7
100
AcDbLine
 10
538.519989
 20
-159.293544
 30
0.0
 11
538.519989
 21
-157.293544
 31
0.0
  0
LINE
  5
19F
100
AcDbEntity
  8
0
390
0
  6
Continuous
 62
     7
100
AcDbLine
 10
518.519989
 20
-159.293544
 30
0.0
 11
538.519989
 21
-159.293544
 31
0.0
  0
LINE
  5
1A0
100
AcDbEntity
  8
0
390
0
  6
Continuous
 62
     7
100
AcDbLine
 10
498.519989
 20
-157.293544
 30
0.0
 11
498.519989
 21
-159.293544
 31
0.0
  0
LINE
  5
1A1
100
AcDbEntity
  8
0
390
0
  6
Continuous
 62
     7
100
AcDbLine
 10
518.519989
 20
-157.293544
 30
0.0
 11
498.519989
 21
-157.293544
 31
0.0
  0
LINE
  5
1A2
100
AcDbEntity
  8
0
390
0
  6
Continuous
 62
     7
100
AcDbLine
 10
518.519989
 20
-159.293544
 30
0.0
 11
518.519989
 21
-157.293544
 31
0.0
  0
LINE
  5
1A3
100
AcDbEntity
  8
0
390
0
  6
Continuous
 62
     7
100
AcDbLine
 10
498.519989
 20
-159.293544
 30
0.0
 11
518.519989
 21
-159.293544
 31
0.0
  0
LINE
  5
1A4
100
AcDbEntity
  8
0
390
0
  6
Continuous
 62
     7
100
AcDbLine
 10
498.519989
 20
-159.293543
 30
0.0
 11
498.519989
 21
-157.293544
 31
0.0
  0
LINE
  5
1A5
100
AcDbEntity
  8
0
390
0
  6
Continuous
 62
     7
100
AcDbLine
 10
498.519989
 20
-159.293544
 30
0.0
 11
502.518677
 21
-159.293544
 31
0.0
  0
LINE
  5
1A6
100
AcDbEntity
  8
0
390
0
  6
Continuous
 62
     7
100
AcDbLine
 10
502.518677
 20
-159.293544
 30
0.0
 11
518.519989
 21
-159.293544
 31
0.0
  0
LINE
  5
1A7
100
AcDbEntity
  8
0
390
0
  6
Continuous
 62
     7
100
AcDbLine
 10
518.519989
 20
-159.293544
 30
0.0
 11
534.499397
 21
-159.293544
 31
0.0
  0
LINE
  5
1A8
100
AcDbEntity
  8
0
390
0
  6
Continuous
 62
     7
100
AcDbLine
 10
534.499397
 20
-159.293544
 30
0.0
 11
538.519989
 21
-159.293544
 31
0.0
  0
LINE
  5
1A9
100
AcDbEntity
  8
0
390
0
  6
Continuous
 62
     7
100
AcDbLine
 10
518.519989
 20
-157.293544
 30
0.0
 11
538.519989
 21
-157.293544
 31
0.0
  0
LINE
  5
1AA
100
AcDbEntity
  8
0
390
0
  6
Continuous
 62
     7
100
AcDbLine
 10
498.519989
 20
-157.293544
 30
0.0
 11
501.016889
 21
-157.293544
 31
0.0
  0
LINE
  5
1AB
100
AcDbEntity
  8
0
390
0
  6
Continuous
 62
     7
100
AcDbLine
 10
501.016889
 20
-157.293544
 30
0.0
 11
518.519989
 21
-157.293544
 31
0.0
  0
LINE
  5
1AC
100
AcDbEntity
  8
0
390
0
  6
Continuous
 62
     7
100
AcDbLine
 10
533.519989
 20
-156.093544
 30
0.0
 11
528.719465
 21
-156.093544
 31
0.0
  0
LINE
  5
1AD
100
AcDbEntity
  8
0
390
0
  6
Continuous
 62
     7
100
AcDbLine
 10
528.719465
 20
-156.093544
 30
0.0
 11
528.520026
 21
-156.093544
 31
0.0
  0
LINE
  5
1AE
100
AcDbEntity
  8
0
390
0
  6
Continuous
 62
     7
100
AcDbLine
 10
528.520026
 20
-156.093544
 30
0.0
 11
508.419989
 21
-156.093544
 31
0.0
  0
LINE
  5
1AF
100
AcDbEntity
  8
0
390
0
  6
Continuous
 62
     7
100
AcDbLine
 10
508.419989
 20
-156.093544
 30
0.0
 11
503.519989
 21
-156.093544
 31
0.0
  0
LINE
  5
1B0
100
AcDbEntity
  8
0
390
0
  6
Continuous
 62
     7
100
AcDbLine
 10
538.519989
 20
-156.093544
 30
0.0
 11
538.519989
 21
164.401115
 31
0.0
  0
LINE
  5
1B1
100
AcDbEntity
  8
0
390
0
  6
Continuous
 62
     7
100
AcDbLine
 10
498.519989
 20
-156.093544
 30
0.0
 11
498.519989
 21
164.401115
 31
0.0
  0
LINE
  5
1B2
100
AcDbEntity
  8
0
390
0
  6
Continuous
 62
     7
100
AcDbLine
 10
498.519989
 20
-156.093544
 30
0.0
 11
503.519989
 21
-156.093544
 31
0.0
  0
LINE
  5
1B3
100
AcDbEntity
  8
0
390
0
  6
Continuous
 62
     7
100
AcDbLine
 10
503.519989
 20
-156.093544
 30
0.0
 11
508.320072
 21
-156.093544
 31
0.0
  0
LINE
  5
1B4
100
AcDbEntity
  8
0
390
0
  6
Continuous
 62
     7
100
AcDbLine
 10
508.320072
 20
-156.093544
 30
0.0
 11
528.619989
 21
-156.093544
 31
0.0
  0
LINE
  5
1B5
100
AcDbEntity
  8
0
390
0
  6
Continuous
 62
     7
100
AcDbLine
 10
528.619989
 20
-156.093544
 30
0.0
 11
533.519989
 21
-156.093544
 31
0.0
  0
LINE
  5
1B6
100
AcDbEntity
  8
0
390
0
  6
Continuous
 62
     7
100
AcDbLine
 10
533.519989
 20
-156.093544
 30
0.0
 11
538.519989
 21
-156.093544
 31
0.0
  0
LINE
  5
1B7
100
AcDbEntity
  8
0
390
0
  6
Continuous
 62
     7
100
AcDbLine
 10
538.519989
 20
-156.093544
 30
0.0
 11
538.519989
 21
164.401115
 31
0.0
  0
LINE
  5
1B8
100
AcDbEntity
  8
0
390
0
  6
Continuous
 62
     7
100
AcDbLine
 10
533.519989
 20
-156.093544
 30
0.0
 11
538.519989
 21
-156.093544
 31
0.0
  0
LINE
  5
1B9
100
AcDbEntity
  8
0
390
0
  6
Continuous
 62
     7
100
AcDbLine
 10
498.519989
 20
-156.093544
 30
0.0
 11
498.519989
 21
164.401115
 31
0.0
  0
LINE
  5
1BA
100
AcDbEntity
  8
0
390
0
  6
Continuous
 62
     7
100
AcDbLine
 10
503.519989
 20
-156.093544
 30
0.0
 11
498.519989
 21
-156.093544
 31
0.0
  0
LINE
  5
1BB
100
AcDbEntity
  8
0
390
0
  6
Continuous
 62
     7
100
AcDbLine
 10
510.769989
 20
-229.603544
 30
0.0
 11
518.419691
 21
-229.603544
 31
0.0
  0
LINE
  5
1BC
100
AcDbEntity
  8
0
390
0
  6
Continuous
 62
     7
100
AcDbLine
 10
518.419691
 20
-229.603544
 30
0.0
 11
518.62029
 21
-229.603544
 31
0.0
  0
LINE
  5
1BD
100
AcDbEntity
  8
0
390
0
  6
Continuous
 62
     7
100
AcDbLine
 10
518.62029
 20
-229.603544
 30
0.0
 11
526.269989
 21
-229.603544
 31
0.0
  0
LINE
  5
1BE
100
AcDbEntity
  8
0
390
0
  6
Continuous
 62
     7
100
AcDbLine
 10
510.769989
 20
-229.603544
 30
0.0
 11
518.421166
 21
-229.603544
 31
0.0
  0
LINE
  5
1BF
100
AcDbEntity
  8
0
390
0
  6
Continuous
 62
     7
100
AcDbLine
 10
518.421166
 20
-229.603544
 30
0.0
 11
518.618699
 21
-229.603544
 31
0.0
  0
LINE
  5
1C0
100
AcDbEntity
  8
0
390
0
  6
Continuous
 62
     7
100
AcDbLine
 10
518.618699
 20
-229.603544
 30
0.0
 11
526.269989
 21
-229.603544
 31
0.0
  0
LINE
  5
1C1
100
AcDbEntity
  8
0
390
0
  6
Continuous
 62
     7
100
AcDbLine
 10
505.471093
 20
-176.997962
 30
0.0
 11
506.519989
 21
-177.603544
 31
0.0
  0
LINE
  5
1C2
100
AcDbEntity
  8
0
390
0
  6
Continuous
 62
     7
100
AcDbLine
 10
530.519989
 20
-177.603544
 30
0.0
 11
531.568869
 21
-176.997971
 31
0.0
  0
LINE
  5
1C3
100
AcDbEntity
  8
0
390
0
  6
Continuous
 62
     7
100
AcDbLine
 10
509.619989
 20
-159.293544
 30
0.0
 11
509.619989
 21
-160.793544
 31
0.0
  0
LINE
  5
1C4
100
AcDbEntity
  8
0
390
0
  6
Continuous
 62
     7
100
AcDbLine
 10
527.419989
 20
-160.793544
 30
0.0
 11
527.419989
 21
-159.293544
 31
0.0
  0
LINE
  5
1C5
100
AcDbEntity
  8
0
390
0
  6
Continuous
 62
     7
100
AcDbLine
 10
525.619989
 20
-164.603544
 30
0.0
 11
525.619989
 21
-160.761939
 31
0.0
  0
LINE
  5
1C6
100
AcDbEntity
  8
0
390
0
  6
Continuous
 62
     7
100
AcDbLine
 10
525.619989
 20
-157.247475
 30
0.0
 11
525.619989
 21
-156.14581
 31
0.0
  0
LINE
  5
1C7
100
AcDbEntity
  8
0
390
0
  6
Continuous
 62
     7
100
AcDbLine
 10
525.619989
 20
-156.14581
 30
0.0
 11
525.619989
 21
-156.045727
 31
0.0
  0
LINE
  5
1C8
100
AcDbEntity
  8
0
390
0
  6
Continuous
 62
     7
100
AcDbLine
 10
511.419989
 20
-156.05838
 30
0.0
 11
511.419989
 21
-156.158086
 31
0.0
  0
LINE
  5
1C9
100
AcDbEntity
  8
0
390
0
  6
Continuous
 62
     7
100
AcDbLine
 10
511.419989
 20
-156.158086
 30
0.0
 11
511.419989
 21
-157.255956
 31
0.0
  0
LINE
  5
1CA
100
AcDbEntity
  8
0
390
0
  6
Continuous
 62
     7
100
AcDbLine
 10
511.419989
 20
-160.762729
 30
0.0
 11
511.419989
 21
-164.603544
 31
0.0
  0
LINE
  5
1CB
100
AcDbEntity
  8
0
390
0
  6
Continuous
 62
     7
100
AcDbLine
 10
510.769989
 20
-177.603544
 30
0.0
 11
510.769989
 21
-229.603544
 31
0.0
  0
LINE
  5
1CC
100
AcDbEntity
  8
0
390
0
  6
Continuous
 62
     7
100
AcDbLine
 10
526.269989
 20
-229.603544
 30
0.0
 11
526.269989
 21
-177.603544
 31
0.0
  0
POINT
  5
1CD
100
AcDbEntity
  8
0
390
0
 62
     7
100
AcDbPoint
 10
0.0
 20
0.0
 30
0.0
  0
POINT
  5
1CE
100
AcDbEntity
  8
0
390
0
 62
     7
100
AcDbPoint
 10
0.0
 20
0.0
 30
0.0
  0
LINE
  5
1CF
100
AcDbEntity
  8
0
390
0
  6
Continuous
 62
     7
100
AcDbLine
 10
498.519989
 20
164.401115
 30
0.0
 11
506.419989
 21
164.401115
 31
0.0
  0
ARC
  5
1D0
100
AcDbEntity
  8
0
390
0
  6
Continuous
 62
     7
100
AcDbCircle
 10
506.41999
 20
166.401114
 30
0.0
 40
1.999999
210
0.0
220
0.0
230
1.0
100
AcDbArc
 50
269.999957
 51
0.000043
  0
LINE
  5
1D1
100
AcDbEntity
  8
0
390
0
  6
Continuous
 62
     7
100
AcDbLine
 10
508.419989
 20
-156.093544
 30
0.0
 11
508.419989
 21
170.49731
 31
0.0
  0
ARC
  5
1D2
100
AcDbEntity
  8
0
390
0
  6
Continuous
 62
     7
100
AcDbCircle
 10
518.519989
 20
170.49731
 30
0.0
 40
10.1
210
0.0
220
0.0
230
1.0
100
AcDbArc
 50
360.0
 51
180.0
  0
LINE
  5
1D3
100
AcDbEntity
  8
0
390
0
  6
Continuous
 62
     7
100
AcDbLine
 10
528.619989
 20
170.49731
 30
0.0
 11
528.619989
 21
-156.093544
 31
0.0
  0
ARC
  5
1D4
100
AcDbEntity
  8
0
390
0
  6
Continuous
 62
     7
100
AcDbCircle
 10
530.619988
 20
166.401114
 30
0.0
 40
1.999999
210
0.0
220
0.0
230
1.0
100
AcDbArc
 50
179.999957
 51
270.000043
  0
LINE
  5
1D5
100
AcDbEntity
  8
0
390
0
  6
Continuous
 62
     7
100
AcDbLine
 10
530.619989
 20
164.401115
 30
0.0
 11
538.519989
 21
164.401115
 31
0.0
  0
ENDSEC
  0
SECTION
  2
OBJECTS
  0
DICTIONARY
  5
19
100
AcDbDictionary
280
     0
281
     1
  3
ACAD_GROUP
350
1A
  3
ACAD_MLINESTYLE
350
1B
  3
ACAD_LAYOUT
350
1E
  3
ACAD_PLOTSETTINGS
350
22
  3
ACAD_PLOTSTYLENAME
350
1F
  3
ACAD_WIPEOUT_VARS
350
23
  0
DICTIONARY
  5
1A
102
{ACAD_REACTORS
330
19
102
}
100
AcDbDictionary
280
     0
281
     1
  0
DICTIONARY
  5
1B
102
{ACAD_REACTORS
330
19
102
}
100
AcDbDictionary
280
     0
281
     1
  3
Standard
350
1C
  0
MLINESTYLE
  5
1C
102
{ACAD_REACTORS
330
1B
102
}
100
AcDbMlineStyle
  2
Standard
 70
     0
  3

 62
     0
 51
90.0
 52
90.0
 71
     2
 49
0.5
 62
   256
  6
ByLayer
 49
-0.5
 62
   256
  6
ByLayer
  0
ACDBDICTIONARYWDFLT
  5
1F
102
{ACAD_REACTORS
330
19
102
}
100
AcDbDictionary
281
     1
  3
Normal
350
1D
100
AcDbDictionaryWithDefault
340
1D
  0
ACDBPLACEHOLDER
  5
1D
102
{ACAD_REACTORS
330
1F
102
}
  0
LAYOUT
  5
20
102
{ACAD_REACTORS
330
1E
102
}
100
AcDbPlotSettings
  1

  2

  4

  6

 40
0.0
 41
0.0
 42
0.0
 43
0.0
 44
0.0
 45
0.0
 46
0.0
 47
0.0
 48
0.0
 49
0.0
140
0.0
141
0.0
142
1.0
143
1.0
 70
  1024
 72
     0
 73
     0
 74
     0
  7

 75
     0
147
1.0
148
0.0
149
0.0
100
AcDbLayout
  1
Model
 70
     0
 71
     1
 10
0.0
 20
0.0
 11
0.0
 21
0.0
 12
0.0
 22
0.0
 32
0.0
 14
0.0
 24
0.0
 34
0.0
 15
0.0
 25
0.0
 35
0.0
146
0.0
 13
0.0
 23
0.0
 33
0.0
 16
0.0
 26
0.0
 36
0.0
 17
0.0
 27
0.0
 37
0.0
 76
     0
330
A
331
0
345
0
346
0
  0
LAYOUT
  5
21
102
{ACAD_REACTORS
330
1E
102
}
100
AcDbPlotSettings
  1

  2

  4

  6

 40
0.0
 41
0.0
 42
0.0
 43
0.0
 44
0.0
 45
0.0
 46
0.0
 47
0.0
 48
0.0
 49
0.0
140
0.0
141
0.0
142
1.0
143
1.0
 70
     0
 72
     0
 73
     0
 74
     0
  7

 75
     0
147
1.0
148
0.0
149
0.0
100
AcDbLayout
  1
Layout1
 70
     0
 71
     2
 10
0.0
 20
0.0
 11
0.0
 21
0.0
 12
0.0
 22
0.0
 32
0.0
 14
0.0
 24
0.0
 34
0.0
 15
0.0
 25
0.0
 35
0.0
146
0.0
 13
0.0
 23
0.0
 33
0.0
 16
0.0
 26
0.0
 36
0.0
 17
0.0
 27
0.0
 37
0.0
 76
     0
330
B
331
0
345
0
346
0
  0
DICTIONARY
  5
1E
102
{ACAD_REACTORS
330
19
102
}
100
AcDbDictionary
280
     0
281
     1
  3
Layout1
350
21
  3
Model
350
20
  0
DICTIONARY
  5
22
102
{ACAD_REACTORS
330
19
102
}
100
AcDbDictionary
280
     0
281
     1
  0
WIPEOUTVARIABLES
  5
23
100
AcDbWipeoutVariables
 70
     1
  0
ENDSEC
  0
EOF
