  0
SECTION
  2
HEADER
  9
$ACADVER
  1
AC1015
  9
$ACADMAINTVER
 70
     6
  9
$DWGCODEPAGE
  3
DOS932
  9
$INSBASE
 10
0.0
 20
0.0
 30
0.0
  9
$EXTMIN
 10
-26.788602
 20
-168.377962
 30
0.0
  9
$EXTMAX
 10
145.96845
 20
22.611904
 30
9.906
  9
$LIMMIN
 10
-26.788602
 20
-168.377962
  9
$LIMMAX
 10
145.96845
 20
22.611904
  9
$ORTHOMODE
 70
     0
  9
$REGENMODE
 70
     1
  9
$FILLMODE
 70
     1
  9
$QTEXTMODE
 70
     0
  9
$MIRRTEXT
 70
     1
  9
$LTSCALE
 40
10.0
  9
$ATTMODE
 70
     1
  9
$TEXTSIZE
 40
0.2
  9
$TRACEWID
 40
0.05
  9
$TEXTSTYLE
  7
Standard
  9
$CLAYER
  8
0
  9
$CELTYPE
  6
Continuous
  9
$CECOLOR
 62
   256
  9
$CELTSCALE
 40
1.0
  9
$DISPSILH
 70
     0
  9
$DIMSCALE
 40
1.0
  9
$DIMASZ
 40
1.40208
  9
$DIMEXO
 40
1.40208
  9
$DIMDLI
 40
0.38
  9
$DIMRND
 40
0.0
  9
$DIMDLE
 40
0.0
  9
$DIMEXE
 40
1.05156
  9
$DIMTP
 40
0.0
  9
$DIMTM
 40
0.0
  9
$DIMTXT
 40
3.5052
  9
$DIMCEN
 40
0.09
  9
$DIMTSZ
 40
0.0
  9
$DIMTOL
 70
     0
  9
$DIMLIM
 70
     0
  9
$DIMTIH
 70
     0
  9
$DIMTOH
 70
     0
  9
$DIMSE1
 70
     0
  9
$DIMSE2
 70
     0
  9
$DIMTAD
 70
     1
  9
$DIMZIN
 70
     0
  9
$DIMBLK
  1

  9
$DIMASO
 70
     1
  9
$DIMSHO
 70
     1
  9
$DIMPOST
  1

  9
$DIMAPOST
  1

  9
$DIMALT
 70
     0
  9
$DIMALTD
 70
     2
  9
$DIMALTF
 40
25.4
  9
$DIMLFAC
 40
1.0
  9
$DIMTOFL
 70
     0
  9
$DIMTVP
 40
0.0
  9
$DIMTIX
 70
     0
  9
$DIMSOXD
 70
     0
  9
$DIMSAH
 70
     0
  9
$DIMBLK1
  1

  9
$DIMBLK2
  1

  9
$DIMSTYLE
  2
Standard
  9
$DIMCLRD
 70
     7
  9
$DIMCLRE
 70
     7
  9
$DIMCLRT
 70
     7
  9
$DIMTFAC
 40
0.5
  9
$DIMGAP
 40
1.7526
  9
$DIMJUST
 70
     0
  9
$DIMSD1
 70
     0
  9
$DIMSD2
 70
     0
  9
$DIMTOLJ
 70
     1
  9
$DIMTZIN
 70
     0
  9
$DIMALTZ
 70
     0
  9
$DIMALTTZ
 70
     0
  9
$DIMUPT
 70
     0
  9
$DIMDEC
 70
     2
  9
$DIMTDEC
 70
     4
  9
$DIMALTU
 70
     2
  9
$DIMALTTD
 70
     2
  9
$DIMTXSTY
  7
Standard
  9
$DIMAUNIT
 70
     0
  9
$DIMADEC
 70
     0
  9
$DIMALTRND
 40
0.0
  9
$DIMAZIN
 70
     0
  9
$DIMDSEP
 70
     0
  9
$DIMATFIT
 70
     3
  9
$DIMFRAC
 70
     0
  9
$DIMLDRBLK
  1

  9
$DIMLUNIT
 70
     2
  9
$DIMLWD
 70
     0
  9
$DIMLWE
 70
     0
  9
$DIMTMOVE
 70
     0
  9
$LUNITS
 70
     2
  9
$LUPREC
 70
     4
  9
$SKETCHINC
 40
0.1
  9
$FILLETRAD
 40
0.0
  9
$AUNITS
 70
     0
  9
$AUPREC
 70
     0
  9
$MENU
  1
acad
  9
$ELEVATION
 40
0.0
  9
$PELEVATION
 40
0.0
  9
$THICKNESS
 40
0.0
  9
$LIMCHECK
 70
     0
  9
$CHAMFERA
 40
0.0
  9
$CHAMFERB
 40
0.0
  9
$CHAMFERC
 40
0.0
  9
$CHAMFERD
 40
0.0
  9
$SKPOLY
 70
     0
  9
$TDCREATE
 40
2459745.732245370
  9
$TDUCREATE
 40
0.000000000
  9
$TDUPDATE
 40
2459745.357222222
  9
$TDUUPDATE
 40
0.000000000
  9
$TDINDWG
 40
0.0000000000
  9
$TDUSRTIMER
 40
0.0000000000
  9
$USRTIMER
 70
     1
  9
$ANGBASE
 50
0.0
  9
$ANGDIR
 70
     0
  9
$PDMODE
 70
     0
  9
$PDSIZE
 40
0.0
  9
$PLINEWID
 40
0.0
  9
$SPLFRAME
 70
     0
  9
$SPLINETYPE
 70
     6
  9
$SPLINESEGS
 70
     8
  9
$HANDSEED
  5
1F0
  9
$SURFTAB1
 70
     6
  9
$SURFTAB2
 70
     6
  9
$SURFTYPE
 70
     6
  9
$SURFU
 70
     6
  9
$SURFV
 70
     6
  9
$UCSBASE
  2

  9
$UCSNAME
  2

  9
$UCSORG
 10
0.0
 20
0.0
 30
0.0
  9
$UCSXDIR
 10
1.0
 20
0.0
 30
0.0
  9
$UCSYDIR
 10
0.0
 20
1.0
 30
0.0
  9
$UCSORTHOREF
  2

  9
$UCSORTHOVIEW
 70
     0
  9
$UCSORGTOP
 10
0.0
 20
0.0
 30
0.0
  9
$UCSORGBOTTOM
 10
0.0
 20
0.0
 30
0.0
  9
$UCSORGLEFT
 10
0.0
 20
0.0
 30
0.0
  9
$UCSORGRIGHT
 10
0.0
 20
0.0
 30
0.0
  9
$UCSORGFRONT
 10
0.0
 20
0.0
 30
0.0
  9
$UCSORGBACK
 10
0.0
 20
0.0
 30
0.0
  9
$PUCSBASE
  2

  9
$PUCSNAME
  2

  9
$PUCSORG
 10
0.0
 20
0.0
 30
0.0
  9
$PUCSXDIR
 10
1.0
 20
0.0
 30
0.0
  9
$PUCSYDIR
 10
0.0
 20
1.0
 30
0.0
  9
$PUCSORTHOREF
  2

  9
$PUCSORTHOVIEW
 70
     0
  9
$PUCSORGTOP
 10
0.0
 20
0.0
 30
0.0
  9
$PUCSORGBOTTOM
 10
0.0
 20
0.0
 30
0.0
  9
$PUCSORGLEFT
 10
0.0
 20
0.0
 30
0.0
  9
$PUCSORGRIGHT
 10
0.0
 20
0.0
 30
0.0
  9
$PUCSORGFRONT
 10
0.0
 20
0.0
 30
0.0
  9
$PUCSORGBACK
 10
0.0
 20
0.0
 30
0.0
  9
$USERI1
 70
     0
  9
$USERI2
 70
     0
  9
$USERI3
 70
     0
  9
$USERI4
 70
     0
  9
$USERI5
 70
     0
  9
$USERR1
 40
0.0
  9
$USERR2
 40
0.0
  9
$USERR3
 40
0.0
  9
$USERR4
 40
0.0
  9
$USERR5
 40
0.0
  9
$WORLDVIEW
 70
     1
  9
$SHADEDGE
 70
     3
  9
$SHADEDIF
 70
    70
  9
$TILEMODE
 70
     1
  9
$MAXACTVP
 70
    16
  9
$PINSBASE
 10
0.0
 20
0.0
 30
0.0
  9
$PLIMCHECK
 70
     0
  9
$PEXTMIN
 10
1.000000E+20
 20
1.000000E+20
 30
1.000000E+20
  9
$PEXTMAX
 10
-1.000000E+20
 20
-1.000000E+20
 30
-1.000000E+20
  9
$PLIMMIN
 10
0.0
 20
0.0
  9
$PLIMMAX
 10
12.0
 20
9.0
  9
$UNITMODE
 70
     0
  9
$VISRETAIN
 70
     0
  9
$PLINEGEN
 70
     1
  9
$PSLTSCALE
 70
     0
  9
$TREEDEPTH
 70
  3020
  9
$CMLSTYLE
  2
Standard
  9
$CMLJUST
 70
     0
  9
$CMLSCALE
 40
1.0
  9
$PROXYGRAPHICS
 70
     0
  9
$MEASUREMENT
 70
     0
  9
$CELWEIGHT
370
     0
  9
$ENDCAPS
280
     0
  9
$JOINSTYLE
280
     0
  9
$LWDISPLAY
290
     0
  9
$INSUNITS
 70
     0
  9
$HYPERLINKBASE
  1

  9
$STYLESHEET
  1

  9
$XEDIT
290
     1
  9
$CEPSNTYPE
380
     0
  9
$PSTYLEMODE
290
     1
  9
$FINGERPRINTGUID
  2

  9
$VERSIONGUID
  2

  9
$EXTNAMES
290
     1
  9
$PSVPSCALE
 40
0.0
  0
ENDSEC
  0
SECTION
  2
CLASSES
  0
CLASS
  1
LWPOLYLINE
  2
AcDbPolyline
  3
AutoCAD 2000
 90
        0
280
     0
281
     1
  0
CLASS
  1
IMAGE
  2
AcDbRasterImage
  3
ISM
 90
      127
280
     0
281
     1
  0
CLASS
  1
OLE2FRAME
  2
AcDbOle2Frame
  3
AutoCAD 2000
 90
        0
280
     0
281
     1
  0
CLASS
  1
HATCH
  2
AcDbHatch
  3
AutoCAD 2000
 90
        0
280
     0
281
     1
  0
CLASS
  1
DICTIONARYVAR
  2
AcDbDictionaryVar
  3
AutoCAD 2000
 90
        0
280
     0
281
     0
  0
CLASS
  1
RASTERVARIABLES
  2
AcDbRasterVariables
  3
ISM
 90
        0
280
     0
281
     0
  0
CLASS
  1
IMAGEDEF
  2
AcDbRasterImageDef
  3
ISM
 90
        0
280
     0
281
     0
  0
CLASS
  1
IMAGEDEF_REACTOR
  2
AcDbRasterImageDefReactor
  3
ISM
 90
        1
280
     0
281
     0
  0
CLASS
  1
IDBUFFER
  2
AcDbIdBuffer
  3
AutoCAD 2000
 90
        0
280
     0
281
     0
  0
CLASS
  1
SPATIAL_FILTER
  2
AcDbSpatialFilter
  3
AutoCAD 2000
 90
        0
280
     0
281
     0
  0
CLASS
  1
XRECORD
  2
AcDbXrecord
  3
AutoCAD 2000
 90
        0
280
     0
281
     0
  0
CLASS
  1
SORTENTSTABLE
  2
AcDbSortentsTable
  3
AutoCAD 2000
 90
        0
280
     0
281
     0
  0
CLASS
  1
LAYER_INDEX
  2
AcDbLayerIndex
  3
AutoCAD 2000
 90
        0
280
     0
281
     0
  0
CLASS
  1
SPATIAL_INDEX
  2
AcDbSpatialIndex
  3
AutoCAD 2000
 90
        0
280
     0
281
     0
  0
CLASS
  1
OBJECT_PTR
  2
CAseDLPNTableRecord
  3
"ASE-LPNTableRecord"
 90
        1
280
     0
281
     0
  0
CLASS
  1
LAYOUT
  2
AcDbLayout
  3
AutoCAD 2000
 90
        0
280
     0
281
     0
  0
CLASS
  1
PLOTSETTINGS
  2
AcDbPlotSettings
  3
AutoCAD 2000
 90
        0
280
     0
281
     0
  0
CLASS
  1
ACDBDICTIONARYWDFLT
  2
AcDbDictionaryWithDefault
  3
AutoCAD 2000
 90
        0
280
     0
281
     0
  0
CLASS
  1
ACDBPLACEHOLDER
  2
AcDbPlaceHolder
  3
AutoCAD 2000
 90
        0
280
     0
281
     0
  0
CLASS
  1
VBA_PROJECT
  2
AcDbVbaProject
  3
acadvba
 90
        0
280
     0
281
     0
  0
CLASS
  1
WIPEOUT
  2
AcDbWipeout
  3
WipeOut|AutoCAD Express Tool|expresstools@autodesk.com
 90
      127
280
     0
281
     1
  0
CLASS
  1
WIPEOUTVARIABLES
  2
AcDbWipeoutVariables
  3
WipeOut|AutoCAD Express Tool|expresstools@autodesk.com
 90
        0
280
     0
281
     0
  0
CLASS
  1
RTEXT
  2
RText
  3
RText|AutoCAD Express Tool|expresstools@autodesk.com
 90
        0
280
     0
281
     1
  0
CLASS
  1
ARCALIGNEDTEXT
  2
AcDbArcAlignedText
  3
ATEXT|AutoCAD Express Tool|expresstools@autodesk.com
 90
        0
280
     0
281
     1
  0
ENDSEC
  0
SECTION
  2
TABLES
  0
TABLE
  2
VPORT
  5
7
100
AcDbSymbolTable
 70
     1
  0
VPORT
  5
15
100
AcDbSymbolTableRecord
100
AcDbViewportTableRecord
  2
*ACTIVE
 70
     0
 10
0.0
 20
0.0
 11
1.0
 21
1.0
 12
6.591288
 22
4.579184
 13
0.0
 23
0.0
 14
1.0
 24
1.0
 15
0.0
 25
0.0
 16
0.0
 26
0.0
 36
1.0
 17
0.0
 27
0.0
 37
0.0
 40
9.158369
 41
0.688564
 42
50.0
 43
0.0
 44
0.0
 50
0.0
 51
0.0
 71
     0
 72
   100
 73
     1
 74
     1
 75
     0
 76
     0
 77
     0
 78
     0
281
     0
 65
     0
110
0.0
120
0.0
130
0.0
111
1.0
121
0.0
131
0.0
112
0.0
122
1.0
132
0.0
345
0
346
0
 79
     0
146
0.0
  0
ENDTAB
  0
TABLE
  2
LTYPE
  5
4
100
AcDbSymbolTable
 70
     3
  0
LTYPE
  5
11
100
AcDbSymbolTableRecord
100
AcDbLinetypeTableRecord
  2
ByBlock
 70
    64
  3

 72
    65
 73
     0
 40
0.0
  0
LTYPE
  5
12
100
AcDbSymbolTableRecord
100
AcDbLinetypeTableRecord
  2
ByLayer
 70
    64
  3

 72
    65
 73
     0
 40
0.0
  0
LTYPE
  5
13
100
AcDbSymbolTableRecord
100
AcDbLinetypeTableRecord
  2
Continuous
 70
    64
  3
Solid line
 72
    65
 73
     0
 40
0.0
  0
ENDTAB
  0
TABLE
  2
LAYER
  5
2
100
AcDbSymbolTable
 70
     1
  0
LAYER
  5
14
100
AcDbSymbolTableRecord
100
AcDbLayerTableRecord
  2
0
 70
     0
 62
     7
  6
Continuous
290
     1
370
    -3
390
1D
  0
ENDTAB
  0
TABLE
  2
STYLE
  5
3
100
AcDbSymbolTable
 70
     1
  0
STYLE
  5
17
100
AcDbSymbolTableRecord
100
AcDbTextStyleTableRecord
  2
Standard
 70
     0
 40
0.0
 41
1.0
 50
0.0
 71
     0
 42
0.0
  3
FG教科書体NT-M
  4

1001
ACAD
1000
FG教科書体NT-M
1071
        0
  0
ENDTAB
  0
TABLE
  2
VIEW
  5
5
100
AcDbSymbolTable
 70
     0
  0
ENDTAB
  0
TABLE
  2
UCS
  5
6
100
AcDbSymbolTable
 70
     0
  0
ENDTAB
  0
TABLE
  2
APPID
  5
8
100
AcDbSymbolTable
 70
     2
  0
APPID
  5
16
100
AcDbSymbolTableRecord
100
AcDbRegAppTableRecord
  2
ACAD
 70
     0
  0
APPID
  5
26
100
AcDbSymbolTableRecord
100
AcDbRegAppTableRecord
  2
TOPsolid_Design
 70
     0
  0
ENDTAB
  0
TABLE
  2
DIMSTYLE
  5
9
100
AcDbSymbolTable
 70
     1
100
AcDbDimStyleTable
 71
     0
  0
DIMSTYLE
105
18
100
AcDbSymbolTableRecord
100
AcDbDimStyleTableRecord
  2
Standard
 70
     0
  3

  4

 40
1.0
 41
1.40208
 42
1.40208
 43
0.38
 44
1.05156
 45
0.0
 46
0.0
 47
0.0
 48
0.0
 71
     0
 72
     0
 73
     0
 74
     0
 75
     0
 76
     0
 77
     1
 78
     0
 79
     0
140
3.5052
141
0.09
142
0.0
143
25.4
144
1.0
145
0.0
146
0.5
147
1.7526
148
0.0
170
     0
171
     2
172
     0
173
     0
174
     0
175
     0
176
     7
177
     7
178
     7
179
     0
271
     2
272
     4
273
     2
274
     2
275
     0
276
     0
277
     2
278
    46
279
     0
280
     0
281
     0
282
     0
283
     1
284
     0
285
     0
286
     0
288
     0
289
     3
340
17
341
0
342
0
343
0
344
0
371
    -2
372
    -2
  0
ENDTAB
  0
TABLE
  2
BLOCK_RECORD
  5
1
100
AcDbSymbolTable
 70
     0
  0
BLOCK_RECORD
  5
A
100
AcDbSymbolTableRecord
100
AcDbBlockTableRecord
  2
*MODEL_SPACE
340
20
  0
BLOCK_RECORD
  5
B
100
AcDbSymbolTableRecord
100
AcDbBlockTableRecord
  2
*PAPER_SPACE
340
21
  0
ENDTAB
  0
ENDSEC
  0
SECTION
  2
BLOCKS
  0
BLOCK
  5
D
100
AcDbEntity
  8
0
390
0
100
AcDbBlockBegin
  2
*MODEL_SPACE
 70
     0
 10
0.0
 20
0.0
 30
0.0
  3
*MODEL_SPACE
  1

  0
ENDBLK
  5
E
100
AcDbEntity
  8
0
390
0
100
AcDbBlockEnd
  0
BLOCK
  5
F
100
AcDbEntity
 67
     1
  8
0
390
0
100
AcDbBlockBegin
  2
*PAPER_SPACE
 70
     0
 10
0.0
 20
0.0
 30
0.0
  3
*PAPER_SPACE
  1

  0
ENDBLK
  5
10
100
AcDbEntity
 67
     1
  8
0
390
0
100
AcDbBlockEnd
  0
ENDSEC
  0
SECTION
  2
ENTITIES
  0
LINE
  5
27
100
AcDbEntity
  8
0
390
0
  6
Continuous
 62
     7
100
AcDbLine
 10
21.933864
 20
-61.867169
 30
0.0
 11
21.933864
 21
-54.617724
 31
0.0
  0
LINE
  5
28
100
AcDbEntity
  8
0
390
0
  6
Continuous
 62
     7
100
AcDbLine
 10
21.933864
 20
-54.617724
 30
0.0
 11
26.811364
 21
-54.617724
 31
0.0
  0
LINE
  5
29
100
AcDbEntity
  8
0
390
0
  6
Continuous
 62
     7
100
AcDbLine
 10
26.811364
 20
-54.617724
 30
0.0
 11
26.811364
 21
-61.867169
 31
0.0
  0
POLYLINE
  5
2A
100
AcDbEntity
  8
0
390
0
  6
Continuous
 62
     7
100
AcDb2dPolyline
 66
     1
 10
0.0
 20
0.0
 30
0.0
 40
0.1
 41
0.1
  0
VERTEX
  5
2B
100
AcDbEntity
  8
0
390
0
 62
     7
100
AcDbVertex
100
AcDb2dVertex
 10
26.811364
 20
-61.867169
 30
0.0
 42
-0.100903
  0
VERTEX
  5
2C
100
AcDbEntity
  8
0
390
0
 62
     7
100
AcDbVertex
100
AcDb2dVertex
 10
24.777773
 20
-62.595268
 30
0.0
  0
VERTEX
  5
2D
100
AcDbEntity
  8
0
390
0
 62
     7
100
AcDbVertex
100
AcDb2dVertex
 10
24.372614
 20
-62.617724
 30
0.0
  0
SEQEND
  5
2E
100
AcDbEntity
  8
0
390
0
  0
POLYLINE
  5
2F
100
AcDbEntity
  8
0
390
0
  6
Continuous
 62
     7
100
AcDb2dPolyline
 66
     1
 10
0.0
 20
0.0
 30
0.0
 40
0.1
 41
0.1
  0
VERTEX
  5
30
100
AcDbEntity
  8
0
390
0
 62
     7
100
AcDbVertex
100
AcDb2dVertex
 10
24.372614
 20
-62.617724
 30
0.0
  0
VERTEX
  5
31
100
AcDbEntity
  8
0
390
0
 62
     7
100
AcDbVertex
100
AcDb2dVertex
 10
23.967045
 20
-62.59521
 30
0.0
 42
-0.106747
  0
VERTEX
  5
32
100
AcDbEntity
  8
0
390
0
 62
     7
100
AcDbVertex
100
AcDb2dVertex
 10
21.933864
 20
-61.867169
 30
0.0
  0
SEQEND
  5
33
100
AcDbEntity
  8
0
390
0
  0
LINE
  5
34
100
AcDbEntity
  8
0
390
0
  6
Continuous
 62
     7
100
AcDbLine
 10
12.133899
 20
-61.867169
 30
0.0
 11
12.133899
 21
-54.617724
 31
0.0
  0
LINE
  5
35
100
AcDbEntity
  8
0
390
0
  6
Continuous
 62
     7
100
AcDbLine
 10
12.133899
 20
-54.617724
 30
0.0
 11
21.888897
 21
-54.617724
 31
0.0
  0
LINE
  5
36
100
AcDbEntity
  8
0
390
0
  6
Continuous
 62
     7
100
AcDbLine
 10
21.888897
 20
-54.617724
 30
0.0
 11
21.888897
 21
-61.867169
 31
0.0
  0
ARC
  5
37
100
AcDbEntity
  8
0
390
0
  6
Continuous
 62
     7
100
AcDbCircle
 10
16.818914
 20
-45.14332
 30
0.0
 40
17.475465
210
0.0
220
0.0
230
1.0
100
AcDbArc
 50
270.631099
 51
286.865146
  0
ARC
  5
38
100
AcDbEntity
  8
0
390
0
  6
Continuous
 62
     7
100
AcDbCircle
 10
17.204222
 20
-45.141112
 30
0.0
 40
17.477676
210
0.0
220
0.0
230
1.0
100
AcDbArc
 50
253.135888
 51
269.367867
  0
LINE
  5
39
100
AcDbEntity
  8
0
390
0
  6
Continuous
 62
     7
100
AcDbLine
 10
7.211432
 20
-61.867169
 30
0.0
 11
7.211432
 21
-54.617724
 31
0.0
  0
LINE
  5
3A
100
AcDbEntity
  8
0
390
0
  6
Continuous
 62
     7
100
AcDbLine
 10
7.211432
 20
-54.617724
 30
0.0
 11
12.088932
 21
-54.617724
 31
0.0
  0
LINE
  5
3B
100
AcDbEntity
  8
0
390
0
  6
Continuous
 62
     7
100
AcDbLine
 10
12.088932
 20
-54.617724
 30
0.0
 11
12.088932
 21
-61.867169
 31
0.0
  0
POLYLINE
  5
3C
100
AcDbEntity
  8
0
390
0
  6
Continuous
 62
     7
100
AcDb2dPolyline
 66
     1
 10
0.0
 20
0.0
 30
0.0
 40
0.1
 41
0.1
  0
VERTEX
  5
3D
100
AcDbEntity
  8
0
390
0
 62
     7
100
AcDbVertex
100
AcDb2dVertex
 10
12.088932
 20
-61.867169
 30
0.0
 42
-0.100817
  0
VERTEX
  5
3E
100
AcDbEntity
  8
0
390
0
 62
     7
100
AcDbVertex
100
AcDb2dVertex
 10
10.056288
 20
-62.595163
 30
0.0
  0
VERTEX
  5
3F
100
AcDbEntity
  8
0
390
0
 62
     7
100
AcDbVertex
100
AcDb2dVertex
 10
9.650182
 20
-62.617724
 30
0.0
  0
SEQEND
  5
40
100
AcDbEntity
  8
0
390
0
  0
POLYLINE
  5
41
100
AcDbEntity
  8
0
390
0
  6
Continuous
 62
     7
100
AcDb2dPolyline
 66
     1
 10
0.0
 20
0.0
 30
0.0
 40
0.1
 41
0.1
  0
VERTEX
  5
42
100
AcDbEntity
  8
0
390
0
 62
     7
100
AcDbVertex
100
AcDb2dVertex
 10
9.650182
 20
-62.617724
 30
0.0
  0
VERTEX
  5
43
100
AcDbEntity
  8
0
390
0
 62
     7
100
AcDbVertex
100
AcDb2dVertex
 10
9.243922
 20
-62.595133
 30
0.0
 42
-0.106673
  0
VERTEX
  5
44
100
AcDbEntity
  8
0
390
0
 62
     7
100
AcDbVertex
100
AcDb2dVertex
 10
7.211432
 20
-61.867169
 30
0.0
  0
SEQEND
  5
45
100
AcDbEntity
  8
0
390
0
  0
LINE
  5
46
100
AcDbEntity
  8
0
390
0
  6
Continuous
 62
     7
100
AcDbLine
 10
26.811364
 20
-54.617724
 30
0.0
 11
21.933864
 21
-54.617724
 31
0.0
  0
LINE
  5
47
100
AcDbEntity
  8
0
390
0
  6
Continuous
 62
     7
100
AcDbLine
 10
21.933864
 20
-54.617724
 30
0.0
 11
21.888897
 21
-54.617724
 31
0.0
  0
LINE
  5
48
100
AcDbEntity
  8
0
390
0
  6
Continuous
 62
     7
100
AcDbLine
 10
21.888897
 20
-54.617724
 30
0.0
 11
12.133899
 21
-54.617724
 31
0.0
  0
LINE
  5
49
100
AcDbEntity
  8
0
390
0
  6
Continuous
 62
     7
100
AcDbLine
 10
12.133899
 20
-54.617724
 30
0.0
 11
12.088932
 21
-54.617724
 31
0.0
  0
LINE
  5
4A
100
AcDbEntity
  8
0
390
0
  6
Continuous
 62
     7
100
AcDbLine
 10
12.088932
 20
-54.617724
 30
0.0
 11
7.211432
 21
-54.617724
 31
0.0
  0
LINE
  5
4B
100
AcDbEntity
  8
0
390
0
  6
Continuous
 62
     7
100
AcDbLine
 10
21.888897
 20
-54.617724
 30
0.0
 11
21.888897
 21
-61.867169
 31
0.0
  0
LINE
  5
4C
100
AcDbEntity
  8
0
390
0
  6
Continuous
 62
     7
100
AcDbLine
 10
21.933864
 20
-54.617724
 30
0.0
 11
21.888897
 21
-54.617724
 31
0.0
  0
LINE
  5
4D
100
AcDbEntity
  8
0
390
0
  6
Continuous
 62
     7
100
AcDbLine
 10
21.933864
 20
-61.867169
 30
0.0
 11
21.933864
 21
-54.617724
 31
0.0
  0
LINE
  5
4E
100
AcDbEntity
  8
0
390
0
  6
Continuous
 62
     7
100
AcDbLine
 10
21.888897
 20
-61.867169
 30
0.0
 11
21.933864
 21
-61.867169
 31
0.0
  0
POLYLINE
  5
4F
100
AcDbEntity
  8
0
390
0
  6
Continuous
 62
     7
100
AcDb2dPolyline
 66
     1
 10
0.0
 20
0.0
 30
0.0
 40
0.1
 41
0.1
  0
VERTEX
  5
50
100
AcDbEntity
  8
0
390
0
 62
     7
100
AcDbVertex
100
AcDb2dVertex
 10
24.372614
 20
-62.617724
 30
0.0
  0
VERTEX
  5
51
100
AcDbEntity
  8
0
390
0
 62
     7
100
AcDbVertex
100
AcDb2dVertex
 10
23.963638
 20
-62.595228
 30
0.0
 42
-0.106303
  0
VERTEX
  5
52
100
AcDbEntity
  8
0
390
0
 62
     7
100
AcDbVertex
100
AcDb2dVertex
 10
21.933864
 20
-61.867169
 30
0.0
  0
SEQEND
  5
53
100
AcDbEntity
  8
0
390
0
  0
LINE
  5
54
100
AcDbEntity
  8
0
390
0
  6
Continuous
 62
     7
100
AcDbLine
 10
17.011398
 20
-62.617724
 30
0.0
 11
24.372614
 21
-62.617724
 31
0.0
  0
ARC
  5
55
100
AcDbEntity
  8
0
390
0
  6
Continuous
 62
     7
100
AcDbCircle
 10
16.818914
 20
-45.14332
 30
0.0
 40
17.475465
210
0.0
220
0.0
230
1.0
100
AcDbArc
 50
270.631099
 51
286.865146
  0
LINE
  5
56
100
AcDbEntity
  8
0
390
0
  6
Continuous
 62
     7
100
AcDbLine
 10
21.933864
 20
-61.867169
 30
0.0
 11
21.888897
 21
-61.867169
 31
0.0
  0
LINE
  5
57
100
AcDbEntity
  8
0
390
0
  6
Continuous
 62
     7
100
AcDbLine
 10
8.511398
 20
-62.617724
 30
0.0
 11
9.650182
 21
-62.617724
 31
0.0
  0
LINE
  5
58
100
AcDbEntity
  8
0
390
0
  6
Continuous
 62
     7
100
AcDbLine
 10
24.372614
 20
-62.617724
 30
0.0
 11
25.511398
 21
-62.617724
 31
0.0
  0
LINE
  5
59
100
AcDbEntity
  8
0
390
0
  6
Continuous
 62
     7
100
AcDbLine
 10
9.650182
 20
-62.617724
 30
0.0
 11
17.011398
 21
-62.617724
 31
0.0
  0
LINE
  5
5A
100
AcDbEntity
  8
0
390
0
  6
Continuous
 62
     7
100
AcDbLine
 10
17.011398
 20
-62.617724
 30
0.0
 11
24.372614
 21
-62.617724
 31
0.0
  0
LINE
  5
5B
100
AcDbEntity
  8
0
390
0
  6
Continuous
 62
     7
100
AcDbLine
 10
7.211432
 20
-61.867169
 30
0.0
 11
7.211432
 21
-54.617724
 31
0.0
  0
LINE
  5
5C
100
AcDbEntity
  8
0
390
0
  6
Continuous
 62
     7
100
AcDbLine
 10
12.088932
 20
-54.617724
 30
0.0
 11
12.088932
 21
-61.867169
 31
0.0
  0
LINE
  5
5D
100
AcDbEntity
  8
0
390
0
  6
Continuous
 62
     7
100
AcDbLine
 10
12.133899
 20
-54.617724
 30
0.0
 11
12.088932
 21
-54.617724
 31
0.0
  0
LINE
  5
5E
100
AcDbEntity
  8
0
390
0
  6
Continuous
 62
     7
100
AcDbLine
 10
12.133899
 20
-61.867169
 30
0.0
 11
12.133899
 21
-54.617724
 31
0.0
  0
LINE
  5
5F
100
AcDbEntity
  8
0
390
0
  6
Continuous
 62
     7
100
AcDbLine
 10
12.088932
 20
-61.867169
 30
0.0
 11
12.133899
 21
-61.867169
 31
0.0
  0
LINE
  5
60
100
AcDbEntity
  8
0
390
0
  6
Continuous
 62
     7
100
AcDbLine
 10
26.811364
 20
-54.617724
 30
0.0
 11
26.811364
 21
-61.867169
 31
0.0
  0
LINE
  5
61
100
AcDbEntity
  8
0
390
0
  6
Continuous
 62
     7
100
AcDbLine
 10
8.511398
 20
-62.617724
 30
0.0
 11
9.650182
 21
-62.617724
 31
0.0
  0
POLYLINE
  5
62
100
AcDbEntity
  8
0
390
0
  6
Continuous
 62
     7
100
AcDb2dPolyline
 66
     1
 10
0.0
 20
0.0
 30
0.0
 40
0.1
 41
0.1
  0
VERTEX
  5
63
100
AcDbEntity
  8
0
390
0
 62
     7
100
AcDbVertex
100
AcDb2dVertex
 10
9.650182
 20
-62.617724
 30
0.0
  0
VERTEX
  5
64
100
AcDbEntity
  8
0
390
0
 62
     7
100
AcDbVertex
100
AcDb2dVertex
 10
9.240949
 20
-62.595151
 30
0.0
 42
-0.106284
  0
VERTEX
  5
65
100
AcDbEntity
  8
0
390
0
 62
     7
100
AcDbVertex
100
AcDb2dVertex
 10
7.211432
 20
-61.867169
 30
0.0
  0
SEQEND
  5
66
100
AcDbEntity
  8
0
390
0
  0
ARC
  5
67
100
AcDbEntity
  8
0
390
0
  6
Continuous
 62
     7
100
AcDbCircle
 10
17.204222
 20
-45.141112
 30
0.0
 40
17.477676
210
0.0
220
0.0
230
1.0
100
AcDbArc
 50
253.135888
 51
269.367867
  0
LINE
  5
68
100
AcDbEntity
  8
0
390
0
  6
Continuous
 62
     7
100
AcDbLine
 10
9.650182
 20
-62.617724
 30
0.0
 11
17.011398
 21
-62.617724
 31
0.0
  0
POLYLINE
  5
69
100
AcDbEntity
  8
0
390
0
  6
Continuous
 62
     7
100
AcDb2dPolyline
 66
     1
 10
0.0
 20
0.0
 30
0.0
 40
0.1
 41
0.1
  0
VERTEX
  5
6A
100
AcDbEntity
  8
0
390
0
 62
     7
100
AcDbVertex
100
AcDb2dVertex
 10
12.088932
 20
-61.867169
 30
0.0
 42
-0.100612
  0
VERTEX
  5
6B
100
AcDbEntity
  8
0
390
0
 62
     7
100
AcDbVertex
100
AcDb2dVertex
 10
10.059601
 20
-62.595181
 30
0.0
  0
VERTEX
  5
6C
100
AcDbEntity
  8
0
390
0
 62
     7
100
AcDbVertex
100
AcDb2dVertex
 10
9.650182
 20
-62.617724
 30
0.0
  0
SEQEND
  5
6D
100
AcDbEntity
  8
0
390
0
  0
LINE
  5
6E
100
AcDbEntity
  8
0
390
0
  6
Continuous
 62
     7
100
AcDbLine
 10
12.133899
 20
-61.867169
 30
0.0
 11
12.088932
 21
-61.867169
 31
0.0
  0
LINE
  5
6F
100
AcDbEntity
  8
0
390
0
  6
Continuous
 62
     7
100
AcDbLine
 10
24.372614
 20
-62.617724
 30
0.0
 11
25.511398
 21
-62.617724
 31
0.0
  0
POLYLINE
  5
70
100
AcDbEntity
  8
0
390
0
  6
Continuous
 62
     7
100
AcDb2dPolyline
 66
     1
 10
0.0
 20
0.0
 30
0.0
 40
0.1
 41
0.1
  0
VERTEX
  5
71
100
AcDbEntity
  8
0
390
0
 62
     7
100
AcDbVertex
100
AcDb2dVertex
 10
26.811364
 20
-61.867169
 30
0.0
 42
-0.100652
  0
VERTEX
  5
72
100
AcDbEntity
  8
0
390
0
 62
     7
100
AcDbVertex
100
AcDb2dVertex
 10
24.780618
 20
-62.595286
 30
0.0
  0
VERTEX
  5
73
100
AcDbEntity
  8
0
390
0
 62
     7
100
AcDbVertex
100
AcDb2dVertex
 10
24.372614
 20
-62.617724
 30
0.0
  0
SEQEND
  5
74
100
AcDbEntity
  8
0
390
0
  0
LINE
  5
75
100
AcDbEntity
  8
0
390
0
  6
Continuous
 62
     7
100
AcDbLine
 10
-12.066136
 20
-61.867169
 30
0.0
 11
-12.066136
 21
-54.617724
 31
0.0
  0
LINE
  5
76
100
AcDbEntity
  8
0
390
0
  6
Continuous
 62
     7
100
AcDbLine
 10
-12.066136
 20
-54.617724
 30
0.0
 11
-7.188636
 21
-54.617724
 31
0.0
  0
LINE
  5
77
100
AcDbEntity
  8
0
390
0
  6
Continuous
 62
     7
100
AcDbLine
 10
-7.188636
 20
-54.617724
 30
0.0
 11
-7.188636
 21
-61.867169
 31
0.0
  0
POLYLINE
  5
78
100
AcDbEntity
  8
0
390
0
  6
Continuous
 62
     7
100
AcDb2dPolyline
 66
     1
 10
0.0
 20
0.0
 30
0.0
 40
0.1
 41
0.1
  0
VERTEX
  5
79
100
AcDbEntity
  8
0
390
0
 62
     7
100
AcDbVertex
100
AcDb2dVertex
 10
-7.188636
 20
-61.867169
 30
0.0
 42
-0.100903
  0
VERTEX
  5
7A
100
AcDbEntity
  8
0
390
0
 62
     7
100
AcDbVertex
100
AcDb2dVertex
 10
-9.222227
 20
-62.595268
 30
0.0
  0
VERTEX
  5
7B
100
AcDbEntity
  8
0
390
0
 62
     7
100
AcDbVertex
100
AcDb2dVertex
 10
-9.627386
 20
-62.617724
 30
0.0
  0
SEQEND
  5
7C
100
AcDbEntity
  8
0
390
0
  0
POLYLINE
  5
7D
100
AcDbEntity
  8
0
390
0
  6
Continuous
 62
     7
100
AcDb2dPolyline
 66
     1
 10
0.0
 20
0.0
 30
0.0
 40
0.1
 41
0.1
  0
VERTEX
  5
7E
100
AcDbEntity
  8
0
390
0
 62
     7
100
AcDbVertex
100
AcDb2dVertex
 10
-9.627386
 20
-62.617724
 30
0.0
  0
VERTEX
  5
7F
100
AcDbEntity
  8
0
390
0
 62
     7
100
AcDbVertex
100
AcDb2dVertex
 10
-10.032955
 20
-62.59521
 30
0.0
 42
-0.106747
  0
VERTEX
  5
80
100
AcDbEntity
  8
0
390
0
 62
     7
100
AcDbVertex
100
AcDb2dVertex
 10
-12.066136
 20
-61.867169
 30
0.0
  0
SEQEND
  5
81
100
AcDbEntity
  8
0
390
0
  0
LINE
  5
82
100
AcDbEntity
  8
0
390
0
  6
Continuous
 62
     7
100
AcDbLine
 10
-21.866101
 20
-61.867169
 30
0.0
 11
-21.866101
 21
-54.617724
 31
0.0
  0
LINE
  5
83
100
AcDbEntity
  8
0
390
0
  6
Continuous
 62
     7
100
AcDbLine
 10
-21.866101
 20
-54.617724
 30
0.0
 11
-12.111103
 21
-54.617724
 31
0.0
  0
LINE
  5
84
100
AcDbEntity
  8
0
390
0
  6
Continuous
 62
     7
100
AcDbLine
 10
-12.111103
 20
-54.617724
 30
0.0
 11
-12.111103
 21
-61.867169
 31
0.0
  0
ARC
  5
85
100
AcDbEntity
  8
0
390
0
  6
Continuous
 62
     7
100
AcDbCircle
 10
-17.181086
 20
-45.14332
 30
0.0
 40
17.475465
210
0.0
220
0.0
230
1.0
100
AcDbArc
 50
270.631099
 51
286.865146
  0
ARC
  5
86
100
AcDbEntity
  8
0
390
0
  6
Continuous
 62
     7
100
AcDbCircle
 10
-16.795778
 20
-45.141112
 30
0.0
 40
17.477676
210
0.0
220
0.0
230
1.0
100
AcDbArc
 50
253.135888
 51
269.367867
  0
LINE
  5
87
100
AcDbEntity
  8
0
390
0
  6
Continuous
 62
     7
100
AcDbLine
 10
-21.911068
 20
-54.617724
 30
0.0
 11
-21.911068
 21
-61.867169
 31
0.0
  0
LINE
  5
88
100
AcDbEntity
  8
0
390
0
  6
Continuous
 62
     7
100
AcDbLine
 10
-26.788568
 20
-54.617724
 30
0.0
 11
-21.911068
 21
-54.617724
 31
0.0
  0
LINE
  5
89
100
AcDbEntity
  8
0
390
0
  6
Continuous
 62
     7
100
AcDbLine
 10
-26.788568
 20
-61.867169
 30
0.0
 11
-26.788568
 21
-54.617724
 31
0.0
  0
POLYLINE
  5
8A
100
AcDbEntity
  8
0
390
0
  6
Continuous
 62
     7
100
AcDb2dPolyline
 66
     1
 10
0.0
 20
0.0
 30
0.0
 40
0.1
 41
0.1
  0
VERTEX
  5
8B
100
AcDbEntity
  8
0
390
0
 62
     7
100
AcDbVertex
100
AcDb2dVertex
 10
-24.349818
 20
-62.617724
 30
0.0
  0
VERTEX
  5
8C
100
AcDbEntity
  8
0
390
0
 62
     7
100
AcDbVertex
100
AcDb2dVertex
 10
-24.756078
 20
-62.595133
 30
0.0
 42
-0.106673
  0
VERTEX
  5
8D
100
AcDbEntity
  8
0
390
0
 62
     7
100
AcDbVertex
100
AcDb2dVertex
 10
-26.788568
 20
-61.867169
 30
0.0
  0
SEQEND
  5
8E
100
AcDbEntity
  8
0
390
0
  0
POLYLINE
  5
8F
100
AcDbEntity
  8
0
390
0
  6
Continuous
 62
     7
100
AcDb2dPolyline
 66
     1
 10
0.0
 20
0.0
 30
0.0
 40
0.1
 41
0.1
  0
VERTEX
  5
90
100
AcDbEntity
  8
0
390
0
 62
     7
100
AcDbVertex
100
AcDb2dVertex
 10
-21.911068
 20
-61.867169
 30
0.0
 42
-0.100817
  0
VERTEX
  5
91
100
AcDbEntity
  8
0
390
0
 62
     7
100
AcDbVertex
100
AcDb2dVertex
 10
-23.943712
 20
-62.595163
 30
0.0
  0
VERTEX
  5
92
100
AcDbEntity
  8
0
390
0
 62
     7
100
AcDbVertex
100
AcDb2dVertex
 10
-24.349818
 20
-62.617724
 30
0.0
  0
SEQEND
  5
93
100
AcDbEntity
  8
0
390
0
  0
LINE
  5
94
100
AcDbEntity
  8
0
390
0
  6
Continuous
 62
     7
100
AcDbLine
 10
-7.188636
 20
-54.617724
 30
0.0
 11
-12.066136
 21
-54.617724
 31
0.0
  0
LINE
  5
95
100
AcDbEntity
  8
0
390
0
  6
Continuous
 62
     7
100
AcDbLine
 10
-12.066136
 20
-54.617724
 30
0.0
 11
-12.111103
 21
-54.617724
 31
0.0
  0
LINE
  5
96
100
AcDbEntity
  8
0
390
0
  6
Continuous
 62
     7
100
AcDbLine
 10
-12.111103
 20
-54.617724
 30
0.0
 11
-21.866101
 21
-54.617724
 31
0.0
  0
LINE
  5
97
100
AcDbEntity
  8
0
390
0
  6
Continuous
 62
     7
100
AcDbLine
 10
-21.866101
 20
-54.617724
 30
0.0
 11
-21.911068
 21
-54.617724
 31
0.0
  0
LINE
  5
98
100
AcDbEntity
  8
0
390
0
  6
Continuous
 62
     7
100
AcDbLine
 10
-21.911068
 20
-54.617724
 30
0.0
 11
-26.788568
 21
-54.617724
 31
0.0
  0
LINE
  5
99
100
AcDbEntity
  8
0
390
0
  6
Continuous
 62
     7
100
AcDbLine
 10
-12.111103
 20
-54.617724
 30
0.0
 11
-12.111103
 21
-61.867169
 31
0.0
  0
LINE
  5
9A
100
AcDbEntity
  8
0
390
0
  6
Continuous
 62
     7
100
AcDbLine
 10
-12.066136
 20
-54.617724
 30
0.0
 11
-12.111103
 21
-54.617724
 31
0.0
  0
LINE
  5
9B
100
AcDbEntity
  8
0
390
0
  6
Continuous
 62
     7
100
AcDbLine
 10
-12.066136
 20
-61.867169
 30
0.0
 11
-12.066136
 21
-54.617724
 31
0.0
  0
LINE
  5
9C
100
AcDbEntity
  8
0
390
0
  6
Continuous
 62
     7
100
AcDbLine
 10
-12.111103
 20
-61.867169
 30
0.0
 11
-12.066136
 21
-61.867169
 31
0.0
  0
LINE
  5
9D
100
AcDbEntity
  8
0
390
0
  6
Continuous
 62
     7
100
AcDbLine
 10
-16.988602
 20
-62.617724
 30
0.0
 11
-9.627386
 21
-62.617724
 31
0.0
  0
POLYLINE
  5
9E
100
AcDbEntity
  8
0
390
0
  6
Continuous
 62
     7
100
AcDb2dPolyline
 66
     1
 10
0.0
 20
0.0
 30
0.0
 40
0.1
 41
0.1
  0
VERTEX
  5
9F
100
AcDbEntity
  8
0
390
0
 62
     7
100
AcDbVertex
100
AcDb2dVertex
 10
-9.627386
 20
-62.617724
 30
0.0
  0
VERTEX
  5
A0
100
AcDbEntity
  8
0
390
0
 62
     7
100
AcDbVertex
100
AcDb2dVertex
 10
-10.036362
 20
-62.595228
 30
0.0
 42
-0.106303
  0
VERTEX
  5
A1
100
AcDbEntity
  8
0
390
0
 62
     7
100
AcDbVertex
100
AcDb2dVertex
 10
-12.066136
 20
-61.867169
 30
0.0
  0
SEQEND
  5
A2
100
AcDbEntity
  8
0
390
0
  0
LINE
  5
A3
100
AcDbEntity
  8
0
390
0
  6
Continuous
 62
     7
100
AcDbLine
 10
-12.066136
 20
-61.867169
 30
0.0
 11
-12.111103
 21
-61.867169
 31
0.0
  0
ARC
  5
A4
100
AcDbEntity
  8
0
390
0
  6
Continuous
 62
     7
100
AcDbCircle
 10
-17.181086
 20
-45.14332
 30
0.0
 40
17.475465
210
0.0
220
0.0
230
1.0
100
AcDbArc
 50
270.631099
 51
286.865146
  0
LINE
  5
A5
100
AcDbEntity
  8
0
390
0
  6
Continuous
 62
     7
100
AcDbLine
 10
-25.488602
 20
-62.617724
 30
0.0
 11
-24.349818
 21
-62.617724
 31
0.0
  0
LINE
  5
A6
100
AcDbEntity
  8
0
390
0
  6
Continuous
 62
     7
100
AcDbLine
 10
-9.627386
 20
-62.617724
 30
0.0
 11
-8.488602
 21
-62.617724
 31
0.0
  0
LINE
  5
A7
100
AcDbEntity
  8
0
390
0
  6
Continuous
 62
     7
100
AcDbLine
 10
-24.349818
 20
-62.617724
 30
0.0
 11
-16.988602
 21
-62.617724
 31
0.0
  0
LINE
  5
A8
100
AcDbEntity
  8
0
390
0
  6
Continuous
 62
     7
100
AcDbLine
 10
-16.988602
 20
-62.617724
 30
0.0
 11
-9.627386
 21
-62.617724
 31
0.0
  0
LINE
  5
A9
100
AcDbEntity
  8
0
390
0
  6
Continuous
 62
     7
100
AcDbLine
 10
-26.788568
 20
-61.867169
 30
0.0
 11
-26.788568
 21
-54.617724
 31
0.0
  0
LINE
  5
AA
100
AcDbEntity
  8
0
390
0
  6
Continuous
 62
     7
100
AcDbLine
 10
-21.911068
 20
-54.617724
 30
0.0
 11
-21.911068
 21
-61.867169
 31
0.0
  0
LINE
  5
AB
100
AcDbEntity
  8
0
390
0
  6
Continuous
 62
     7
100
AcDbLine
 10
-21.866101
 20
-54.617724
 30
0.0
 11
-21.911068
 21
-54.617724
 31
0.0
  0
LINE
  5
AC
100
AcDbEntity
  8
0
390
0
  6
Continuous
 62
     7
100
AcDbLine
 10
-21.866101
 20
-61.867169
 30
0.0
 11
-21.866101
 21
-54.617724
 31
0.0
  0
LINE
  5
AD
100
AcDbEntity
  8
0
390
0
  6
Continuous
 62
     7
100
AcDbLine
 10
-21.911068
 20
-61.867169
 30
0.0
 11
-21.866101
 21
-61.867169
 31
0.0
  0
LINE
  5
AE
100
AcDbEntity
  8
0
390
0
  6
Continuous
 62
     7
100
AcDbLine
 10
-7.188636
 20
-54.617724
 30
0.0
 11
-7.188636
 21
-61.867169
 31
0.0
  0
LINE
  5
AF
100
AcDbEntity
  8
0
390
0
  6
Continuous
 62
     7
100
AcDbLine
 10
-25.488602
 20
-62.617724
 30
0.0
 11
-24.349818
 21
-62.617724
 31
0.0
  0
POLYLINE
  5
B0
100
AcDbEntity
  8
0
390
0
  6
Continuous
 62
     7
100
AcDb2dPolyline
 66
     1
 10
0.0
 20
0.0
 30
0.0
 40
0.1
 41
0.1
  0
VERTEX
  5
B1
100
AcDbEntity
  8
0
390
0
 62
     7
100
AcDbVertex
100
AcDb2dVertex
 10
-24.349818
 20
-62.617724
 30
0.0
  0
VERTEX
  5
B2
100
AcDbEntity
  8
0
390
0
 62
     7
100
AcDbVertex
100
AcDb2dVertex
 10
-24.759051
 20
-62.595151
 30
0.0
 42
-0.106284
  0
VERTEX
  5
B3
100
AcDbEntity
  8
0
390
0
 62
     7
100
AcDbVertex
100
AcDb2dVertex
 10
-26.788568
 20
-61.867169
 30
0.0
  0
SEQEND
  5
B4
100
AcDbEntity
  8
0
390
0
  0
LINE
  5
B5
100
AcDbEntity
  8
0
390
0
  6
Continuous
 62
     7
100
AcDbLine
 10
-24.349818
 20
-62.617724
 30
0.0
 11
-16.988602
 21
-62.617724
 31
0.0
  0
ARC
  5
B6
100
AcDbEntity
  8
0
390
0
  6
Continuous
 62
     7
100
AcDbCircle
 10
-16.795778
 20
-45.141112
 30
0.0
 40
17.477676
210
0.0
220
0.0
230
1.0
100
AcDbArc
 50
253.135888
 51
269.367867
  0
LINE
  5
B7
100
AcDbEntity
  8
0
390
0
  6
Continuous
 62
     7
100
AcDbLine
 10
-21.866101
 20
-61.867169
 30
0.0
 11
-21.911068
 21
-61.867169
 31
0.0
  0
POLYLINE
  5
B8
100
AcDbEntity
  8
0
390
0
  6
Continuous
 62
     7
100
AcDb2dPolyline
 66
     1
 10
0.0
 20
0.0
 30
0.0
 40
0.1
 41
0.1
  0
VERTEX
  5
B9
100
AcDbEntity
  8
0
390
0
 62
     7
100
AcDbVertex
100
AcDb2dVertex
 10
-21.911068
 20
-61.867169
 30
0.0
 42
-0.100612
  0
VERTEX
  5
BA
100
AcDbEntity
  8
0
390
0
 62
     7
100
AcDbVertex
100
AcDb2dVertex
 10
-23.940399
 20
-62.595181
 30
0.0
  0
VERTEX
  5
BB
100
AcDbEntity
  8
0
390
0
 62
     7
100
AcDbVertex
100
AcDb2dVertex
 10
-24.349818
 20
-62.617724
 30
0.0
  0
SEQEND
  5
BC
100
AcDbEntity
  8
0
390
0
  0
LINE
  5
BD
100
AcDbEntity
  8
0
390
0
  6
Continuous
 62
     7
100
AcDbLine
 10
-9.627386
 20
-62.617724
 30
0.0
 11
-8.488602
 21
-62.617724
 31
0.0
  0
POLYLINE
  5
BE
100
AcDbEntity
  8
0
390
0
  6
Continuous
 62
     7
100
AcDb2dPolyline
 66
     1
 10
0.0
 20
0.0
 30
0.0
 40
0.1
 41
0.1
  0
VERTEX
  5
BF
100
AcDbEntity
  8
0
390
0
 62
     7
100
AcDbVertex
100
AcDb2dVertex
 10
-7.188636
 20
-61.867169
 30
0.0
 42
-0.100652
  0
VERTEX
  5
C0
100
AcDbEntity
  8
0
390
0
 62
     7
100
AcDbVertex
100
AcDb2dVertex
 10
-9.219382
 20
-62.595286
 30
0.0
  0
VERTEX
  5
C1
100
AcDbEntity
  8
0
390
0
 62
     7
100
AcDbVertex
100
AcDb2dVertex
 10
-9.627386
 20
-62.617724
 30
0.0
  0
SEQEND
  5
C2
100
AcDbEntity
  8
0
390
0
  0
LINE
  5
C3
100
AcDbEntity
  8
0
390
0
  6
Continuous
 62
     7
100
AcDbLine
 10
21.611398
 20
-82.617724
 30
0.0
 11
12.411398
 21
-82.617724
 31
0.0
  0
LINE
  5
C4
100
AcDbEntity
  8
0
390
0
  6
Continuous
 62
     7
100
AcDbLine
 10
21.611398
 20
-32.617724
 30
0.0
 11
12.411398
 21
-32.617724
 31
0.0
  0
LINE
  5
C5
100
AcDbEntity
  8
0
390
0
  6
Continuous
 62
     7
100
AcDbLine
 10
12.411398
 20
-82.617724
 30
0.0
 11
21.611398
 21
-82.617724
 31
0.0
  0
LINE
  5
C6
100
AcDbEntity
  8
0
390
0
  6
Continuous
 62
     7
100
AcDbLine
 10
21.611398
 20
-32.617724
 30
0.0
 11
12.411398
 21
-32.617724
 31
0.0
  0
LINE
  5
C7
100
AcDbEntity
  8
0
390
0
  6
Continuous
 62
     7
100
AcDbLine
 10
-12.388602
 20
-82.617724
 30
0.0
 11
-21.588602
 21
-82.617724
 31
0.0
  0
LINE
  5
C8
100
AcDbEntity
  8
0
390
0
  6
Continuous
 62
     7
100
AcDbLine
 10
-12.388602
 20
-32.617724
 30
0.0
 11
-21.588602
 21
-32.617724
 31
0.0
  0
LINE
  5
C9
100
AcDbEntity
  8
0
390
0
  6
Continuous
 62
     7
100
AcDbLine
 10
-21.588602
 20
-82.617724
 30
0.0
 11
-12.388602
 21
-82.617724
 31
0.0
  0
LINE
  5
CA
100
AcDbEntity
  8
0
390
0
  6
Continuous
 62
     7
100
AcDbLine
 10
-12.388602
 20
-32.617724
 30
0.0
 11
-21.588602
 21
-32.617724
 31
0.0
  0
POLYLINE
  5
CB
100
AcDbEntity
  8
0
390
0
  6
Continuous
 62
     7
100
AcDb2dPolyline
 66
     1
 10
0.0
 20
0.0
 30
0.0
 40
0.1
 41
0.1
  0
VERTEX
  5
CC
100
AcDbEntity
  8
0
390
0
 62
     7
100
AcDbVertex
100
AcDb2dVertex
 10
11.371398
 20
-10.017724
 30
0.0
  0
VERTEX
  5
CD
100
AcDbEntity
  8
0
390
0
 62
     7
100
AcDbVertex
100
AcDb2dVertex
 10
11.371398
 20
0.022276
 30
0.0
  0
VERTEX
  5
CE
100
AcDbEntity
  8
0
390
0
 62
     7
100
AcDbVertex
100
AcDb2dVertex
 10
11.307146
 20
1.198031
 30
0.0
 42
0.103226
  0
VERTEX
  5
CF
100
AcDbEntity
  8
0
390
0
 62
     7
100
AcDbVertex
100
AcDb2dVertex
 10
9.846607
 20
5.704045
 30
0.0
  0
VERTEX
  5
D0
100
AcDbEntity
  8
0
390
0
 62
     7
100
AcDbVertex
100
AcDb2dVertex
 10
9.201831
 20
6.699516
 30
0.0
  0
VERTEX
  5
D1
100
AcDbEntity
  8
0
390
0
 62
     7
100
AcDbVertex
100
AcDb2dVertex
 10
8.453597
 20
7.620667
 30
0.0
 42
0.103461
  0
VERTEX
  5
D2
100
AcDbEntity
  8
0
390
0
 62
     7
100
AcDbVertex
100
AcDb2dVertex
 10
4.630771
 20
10.398453
 30
0.0
  0
VERTEX
  5
D3
100
AcDbEntity
  8
0
390
0
 62
     7
100
AcDbVertex
100
AcDb2dVertex
 10
3.521831
 20
10.826278
 30
0.0
  0
VERTEX
  5
D4
100
AcDbEntity
  8
0
390
0
 62
     7
100
AcDbVertex
100
AcDb2dVertex
 10
2.373685
 20
11.132817
 30
0.0
 42
0.103811
  0
VERTEX
  5
D5
100
AcDbEntity
  8
0
390
0
 62
     7
100
AcDbVertex
100
AcDb2dVertex
 10
-2.350889
 20
11.132817
 30
0.0
  0
VERTEX
  5
D6
100
AcDbEntity
  8
0
390
0
 62
     7
100
AcDbVertex
100
AcDb2dVertex
 10
-3.499035
 20
10.826278
 30
0.0
  0
VERTEX
  5
D7
100
AcDbEntity
  8
0
390
0
 62
     7
100
AcDbVertex
100
AcDb2dVertex
 10
-4.607975
 20
10.398453
 30
0.0
 42
0.103461
  0
VERTEX
  5
D8
100
AcDbEntity
  8
0
390
0
 62
     7
100
AcDbVertex
100
AcDb2dVertex
 10
-8.430801
 20
7.620667
 30
0.0
  0
VERTEX
  5
D9
100
AcDbEntity
  8
0
390
0
 62
     7
100
AcDbVertex
100
AcDb2dVertex
 10
-9.179035
 20
6.699516
 30
0.0
  0
VERTEX
  5
DA
100
AcDbEntity
  8
0
390
0
 62
     7
100
AcDbVertex
100
AcDb2dVertex
 10
-9.823811
 20
5.704045
 30
0.0
 42
0.129361
  0
VERTEX
  5
DB
100
AcDbEntity
  8
0
390
0
 62
     7
100
AcDbVertex
100
AcDb2dVertex
 10
-11.348602
 20
0.022276
 30
0.0
  0
VERTEX
  5
DC
100
AcDbEntity
  8
0
390
0
 62
     7
100
AcDbVertex
100
AcDb2dVertex
 10
-11.348602
 20
-10.017724
 30
0.0
  0
SEQEND
  5
DD
100
AcDbEntity
  8
0
390
0
  0
LINE
  5
DE
100
AcDbEntity
  8
0
390
0
  6
Continuous
 62
     7
100
AcDbLine
 10
22.611398
 20
-10.017724
 30
0.0
 11
13.371398
 21
-10.017724
 31
0.0
  0
POLYLINE
  5
DF
100
AcDbEntity
  8
0
390
0
  6
Continuous
 62
     7
100
AcDb2dPolyline
 66
     1
 10
0.0
 20
0.0
 30
0.0
 40
0.1
 41
0.1
  0
VERTEX
  5
E0
100
AcDbEntity
  8
0
390
0
 62
     7
100
AcDbVertex
100
AcDb2dVertex
 10
13.371398
 20
-10.017724
 30
0.0
  0
VERTEX
  5
E1
100
AcDbEntity
  8
0
390
0
 62
     7
100
AcDbVertex
100
AcDb2dVertex
 10
13.371398
 20
0.022276
 30
0.0
  0
VERTEX
  5
E2
100
AcDbEntity
  8
0
390
0
 62
     7
100
AcDbVertex
100
AcDb2dVertex
 10
13.296137
 20
1.410698
 30
0.0
 42
0.103416
  0
VERTEX
  5
E3
100
AcDbEntity
  8
0
390
0
 62
     7
100
AcDbVertex
100
AcDb2dVertex
 10
11.578728
 20
6.703399
 30
0.0
  0
VERTEX
  5
E4
100
AcDbEntity
  8
0
390
0
 62
     7
100
AcDbVertex
100
AcDb2dVertex
 10
10.819865
 20
7.875087
 30
0.0
  0
VERTEX
  5
E5
100
AcDbEntity
  8
0
390
0
 62
     7
100
AcDbVertex
100
AcDb2dVertex
 10
9.939553
 20
8.959083
 30
0.0
 42
0.103544
  0
VERTEX
  5
E6
100
AcDbEntity
  8
0
390
0
 62
     7
100
AcDbVertex
100
AcDb2dVertex
 10
5.443908
 20
12.225581
 30
0.0
  0
VERTEX
  5
E7
100
AcDbEntity
  8
0
390
0
 62
     7
100
AcDbVertex
100
AcDb2dVertex
 10
4.139865
 20
12.728391
 30
0.0
  0
VERTEX
  5
E8
100
AcDbEntity
  8
0
390
0
 62
     7
100
AcDbVertex
100
AcDb2dVertex
 10
2.789634
 20
13.088647
 30
0.0
 42
0.103737
  0
VERTEX
  5
E9
100
AcDbEntity
  8
0
390
0
 62
     7
100
AcDbVertex
100
AcDb2dVertex
 10
-2.766838
 20
13.088647
 30
0.0
  0
VERTEX
  5
EA
100
AcDbEntity
  8
0
390
0
 62
     7
100
AcDbVertex
100
AcDb2dVertex
 10
-4.117069
 20
12.728391
 30
0.0
  0
VERTEX
  5
EB
100
AcDbEntity
  8
0
390
0
 62
     7
100
AcDbVertex
100
AcDb2dVertex
 10
-5.421112
 20
12.225581
 30
0.0
 42
0.103544
  0
VERTEX
  5
EC
100
AcDbEntity
  8
0
390
0
 62
     7
100
AcDbVertex
100
AcDb2dVertex
 10
-9.916757
 20
8.959083
 30
0.0
  0
VERTEX
  5
ED
100
AcDbEntity
  8
0
390
0
 62
     7
100
AcDbVertex
100
AcDb2dVertex
 10
-10.797069
 20
7.875087
 30
0.0
  0
VERTEX
  5
EE
100
AcDbEntity
  8
0
390
0
 62
     7
100
AcDbVertex
100
AcDb2dVertex
 10
-11.555932
 20
6.703399
 30
0.0
 42
0.103416
  0
VERTEX
  5
EF
100
AcDbEntity
  8
0
390
0
 62
     7
100
AcDbVertex
100
AcDb2dVertex
 10
-13.273341
 20
1.410698
 30
0.0
  0
VERTEX
  5
F0
100
AcDbEntity
  8
0
390
0
 62
     7
100
AcDbVertex
100
AcDb2dVertex
 10
-13.348602
 20
0.022276
 30
0.0
  0
VERTEX
  5
F1
100
AcDbEntity
  8
0
390
0
 62
     7
100
AcDbVertex
100
AcDb2dVertex
 10
-13.348602
 20
-10.017724
 30
0.0
  0
SEQEND
  5
F2
100
AcDbEntity
  8
0
390
0
  0
LINE
  5
F3
100
AcDbEntity
  8
0
390
0
  6
Continuous
 62
     7
100
AcDbLine
 10
-13.348602
 20
-10.017724
 30
0.0
 11
-22.588602
 21
-10.017724
 31
0.0
  0
LINE
  5
F4
100
AcDbEntity
  8
0
390
0
  6
Continuous
 62
     7
100
AcDbLine
 10
-13.348602
 20
-10.017724
 30
0.0
 11
-11.348602
 21
-10.017724
 31
0.0
  0
LINE
  5
F5
100
AcDbEntity
  8
0
390
0
  6
Continuous
 62
     7
100
AcDbLine
 10
11.371398
 20
-10.017724
 30
0.0
 11
13.371398
 21
-10.017724
 31
0.0
  0
LINE
  5
F6
100
AcDbEntity
  8
0
390
0
  6
Continuous
 62
     7
100
AcDbLine
 10
13.371408
 20
-10.017724
 30
0.0
 11
22.610978
 21
-10.017724
 31
0.0
  0
LINE
  5
F7
100
AcDbEntity
  8
0
390
0
  6
Continuous
 62
     7
100
AcDbLine
 10
11.371398
 20
-10.017724
 30
0.0
 11
13.371398
 21
-10.017724
 31
0.0
  0
LINE
  5
F8
100
AcDbEntity
  8
0
390
0
  6
Continuous
 62
     7
100
AcDbLine
 10
-22.588184
 20
-10.017724
 30
0.0
 11
-13.34859
 21
-10.017724
 31
0.0
  0
LINE
  5
F9
100
AcDbEntity
  8
0
390
0
  6
Continuous
 62
     7
100
AcDbLine
 10
-13.348602
 20
-10.017724
 30
0.0
 11
-11.348602
 21
-10.017724
 31
0.0
  0
LINE
  5
FA
100
AcDbEntity
  8
0
390
0
  6
Continuous
 62
     7
100
AcDbLine
 10
21.611398
 20
-82.617724
 30
0.0
 11
21.611398
 21
-62.617724
 31
0.0
  0
LINE
  5
FB
100
AcDbEntity
  8
0
390
0
  6
Continuous
 62
     7
100
AcDbLine
 10
21.611398
 20
-54.617724
 30
0.0
 11
21.611398
 21
-32.617724
 31
0.0
  0
LINE
  5
FC
100
AcDbEntity
  8
0
390
0
  6
Continuous
 62
     7
100
AcDbLine
 10
12.411398
 20
-32.617724
 30
0.0
 11
12.411398
 21
-54.617724
 31
0.0
  0
LINE
  5
FD
100
AcDbEntity
  8
0
390
0
  6
Continuous
 62
     7
100
AcDbLine
 10
12.411398
 20
-62.617724
 30
0.0
 11
12.411398
 21
-82.617724
 31
0.0
  0
LINE
  5
FE
100
AcDbEntity
  8
0
390
0
  6
Continuous
 62
     7
100
AcDbLine
 10
-12.388602
 20
-82.617724
 30
0.0
 11
-12.388602
 21
-62.617724
 31
0.0
  0
LINE
  5
FF
100
AcDbEntity
  8
0
390
0
  6
Continuous
 62
     7
100
AcDbLine
 10
-12.388602
 20
-54.617724
 30
0.0
 11
-12.388602
 21
-32.617724
 31
0.0
  0
LINE
  5
100
100
AcDbEntity
  8
0
390
0
  6
Continuous
 62
     7
100
AcDbLine
 10
-21.588602
 20
-32.617724
 30
0.0
 11
-21.588602
 21
-54.617724
 31
0.0
  0
LINE
  5
101
100
AcDbEntity
  8
0
390
0
  6
Continuous
 62
     7
100
AcDbLine
 10
-21.588602
 20
-62.617724
 30
0.0
 11
-21.588602
 21
-82.617724
 31
0.0
  0
LINE
  5
102
100
AcDbEntity
  8
0
390
0
  6
Continuous
 62
     7
100
AcDbLine
 10
-12.888602
 20
-32.617724
 30
0.0
 11
-12.888602
 21
-10.017724
 31
0.0
  0
LINE
  5
103
100
AcDbEntity
  8
0
390
0
  6
Continuous
 62
     7
100
AcDbLine
 10
-21.088602
 20
-10.017724
 30
0.0
 11
-21.088602
 21
-32.617724
 31
0.0
  0
LINE
  5
104
100
AcDbEntity
  8
0
390
0
  6
Continuous
 62
     7
100
AcDbLine
 10
21.111398
 20
-32.617724
 30
0.0
 11
21.111398
 21
-10.017724
 31
0.0
  0
LINE
  5
105
100
AcDbEntity
  8
0
390
0
  6
Continuous
 62
     7
100
AcDbLine
 10
12.911398
 20
-10.017724
 30
0.0
 11
12.911398
 21
-32.617724
 31
0.0
  0
POLYLINE
  5
106
100
AcDbEntity
  8
0
390
0
  6
Continuous
 62
     7
100
AcDb2dPolyline
 66
     1
 10
0.0
 20
0.0
 30
0.0
 40
0.1
 41
0.1
  0
VERTEX
  5
107
100
AcDbEntity
  8
0
390
0
 62
     7
100
AcDbVertex
100
AcDb2dVertex
 10
22.611398
 20
-10.017724
 30
0.0
  0
VERTEX
  5
108
100
AcDbEntity
  8
0
390
0
 62
     7
100
AcDbVertex
100
AcDb2dVertex
 10
22.611398
 20
-0.347799
 30
0.0
  0
VERTEX
  5
109
100
AcDbEntity
  8
0
390
0
 62
     7
100
AcDbVertex
100
AcDb2dVertex
 10
22.603285
 20
0.624268
 30
0.0
 42
1.008935
  0
VERTEX
  5
10A
100
AcDbEntity
  8
0
390
0
 62
     7
100
AcDbVertex
100
AcDb2dVertex
 10
-22.588602
 20
-1.026269
 30
0.0
  0
VERTEX
  5
10B
100
AcDbEntity
  8
0
390
0
 62
     7
100
AcDbVertex
100
AcDb2dVertex
 10
-22.588602
 20
-10.017724
 30
0.0
  0
SEQEND
  5
10C
100
AcDbEntity
  8
0
390
0
  0
LINE
  5
10D
100
AcDbEntity
  8
0
390
0
  6
Continuous
 62
     7
100
AcDbLine
 10
21.933864
 20
-164.352
 30
0.0
 11
24.372614
 21
-160.127962
 31
0.0
  0
LINE
  5
10E
100
AcDbEntity
  8
0
390
0
  6
Continuous
 62
     7
100
AcDbLine
 10
24.372614
 20
-160.127962
 30
0.0
 11
26.811364
 21
-155.903923
 31
0.0
  0
LINE
  5
10F
100
AcDbEntity
  8
0
390
0
  6
Continuous
 62
     7
100
AcDbLine
 10
26.811364
 20
-155.852
 30
0.0
 11
24.372614
 21
-151.627962
 31
0.0
  0
LINE
  5
110
100
AcDbEntity
  8
0
390
0
  6
Continuous
 62
     7
100
AcDbLine
 10
24.372614
 20
-151.627962
 30
0.0
 11
21.933864
 21
-147.403923
 31
0.0
  0
LINE
  5
111
100
AcDbEntity
  8
0
390
0
  6
Continuous
 62
     7
100
AcDbLine
 10
17.011398
 20
-147.377962
 30
0.0
 11
12.133899
 21
-147.377962
 31
0.0
  0
LINE
  5
112
100
AcDbEntity
  8
0
390
0
  6
Continuous
 62
     7
100
AcDbLine
 10
21.888897
 20
-147.377962
 30
0.0
 11
17.011398
 21
-147.377962
 31
0.0
  0
LINE
  5
113
100
AcDbEntity
  8
0
390
0
  6
Continuous
 62
     7
100
AcDbLine
 10
12.088932
 20
-147.403923
 30
0.0
 11
9.650182
 21
-151.627962
 31
0.0
  0
LINE
  5
114
100
AcDbEntity
  8
0
390
0
  6
Continuous
 62
     7
100
AcDbLine
 10
9.650182
 20
-151.627962
 30
0.0
 11
7.211432
 21
-155.852
 31
0.0
  0
LINE
  5
115
100
AcDbEntity
  8
0
390
0
  6
Continuous
 62
     7
100
AcDbLine
 10
9.650182
 20
-160.127962
 30
0.0
 11
12.088932
 21
-164.352
 31
0.0
  0
LINE
  5
116
100
AcDbEntity
  8
0
390
0
  6
Continuous
 62
     7
100
AcDbLine
 10
7.211432
 20
-155.903923
 30
0.0
 11
9.650182
 21
-160.127962
 31
0.0
  0
LINE
  5
117
100
AcDbEntity
  8
0
390
0
  6
Continuous
 62
     7
100
AcDbLine
 10
17.011398
 20
-164.377962
 30
0.0
 11
21.888897
 21
-164.377962
 31
0.0
  0
LINE
  5
118
100
AcDbEntity
  8
0
390
0
  6
Continuous
 62
     7
100
AcDbLine
 10
12.133899
 20
-164.377962
 30
0.0
 11
17.011398
 21
-164.377962
 31
0.0
  0
ARC
  5
119
100
AcDbEntity
  8
0
390
0
  6
Continuous
 62
     7
100
AcDbCircle
 10
17.011398
 20
-155.877962
 30
0.0
 40
5.0
210
0.0
220
0.0
230
1.0
100
AcDbArc
 50
330.0
 51
150.0
  0
ARC
  5
11A
100
AcDbEntity
  8
0
390
0
  6
Continuous
 62
     7
100
AcDbCircle
 10
17.011398
 20
-155.877962
 30
0.0
 40
5.0
210
0.0
220
0.0
230
1.0
100
AcDbArc
 50
150.0
 51
330.0
  0
ARC
  5
11B
100
AcDbEntity
  8
0
390
0
  6
Continuous
 62
     7
100
AcDbCircle
 10
17.011398
 20
-155.877962
 30
0.0
 40
9.8
210
0.0
220
0.0
230
0.9999999999999999
100
AcDbArc
 50
59.848215
 51
60.151785
  0
ARC
  5
11C
100
AcDbEntity
  8
0
390
0
  6
Continuous
 62
     7
100
AcDbCircle
 10
17.011398
 20
-155.877962
 30
0.0
 40
8.5
210
0.0
220
0.0
230
1.0
100
AcDbArc
 50
30.0
 51
90.0
  0
LINE
  5
11D
100
AcDbEntity
  8
0
390
0
  6
Continuous
 62
     7
100
AcDbLine
 10
24.372614
 20
-151.627962
 30
0.0
 11
21.933864
 21
-147.403923
 31
0.0
  0
ARC
  5
11E
100
AcDbEntity
  8
0
390
0
  6
Continuous
 62
     7
100
AcDbCircle
 10
17.011398
 20
-155.877962
 30
0.0
 40
9.8
210
0.0
220
0.0
230
0.9999999999999999
100
AcDbArc
 50
59.848215
 51
60.151785
  0
LINE
  5
11F
100
AcDbEntity
  8
0
390
0
  6
Continuous
 62
     7
100
AcDbLine
 10
21.888897
 20
-147.377962
 30
0.0
 11
17.011398
 21
-147.377962
 31
0.0
  0
ARC
  5
120
100
AcDbEntity
  8
0
390
0
  6
Continuous
 62
     7
100
AcDbCircle
 10
17.011398
 20
-155.877962
 30
0.0
 40
8.5
210
0.0
220
0.0
230
1.0
100
AcDbArc
 50
330.0
 51
30.0
  0
ARC
  5
121
100
AcDbEntity
  8
0
390
0
  6
Continuous
 62
     7
100
AcDbCircle
 10
17.011811
 20
-155.878678
 30
0.0
 40
8.499284
210
0.0
220
0.0
230
1.0
100
AcDbArc
 50
269.997213
 51
330.002787
  0
ARC
  5
122
100
AcDbEntity
  8
0
390
0
  6
Continuous
 62
     7
100
AcDbCircle
 10
17.011398
 20
-155.877962
 30
0.0
 40
8.5
210
0.0
220
0.0
230
1.0
100
AcDbArc
 50
210.0
 51
270.0
  0
ARC
  5
123
100
AcDbEntity
  8
0
390
0
  6
Continuous
 62
     7
100
AcDbCircle
 10
17.011398
 20
-155.877962
 30
0.0
 40
8.5
210
0.0
220
0.0
230
1.0
100
AcDbArc
 50
150.0
 51
210.0
  0
ARC
  5
124
100
AcDbEntity
  8
0
390
0
  6
Continuous
 62
     7
100
AcDbCircle
 10
17.011398
 20
-155.877962
 30
0.0
 40
8.5
210
0.0
220
0.0
230
1.0
100
AcDbArc
 50
90.0
 51
150.0
  0
ARC
  5
125
100
AcDbEntity
  8
0
390
0
  6
Continuous
 62
     7
100
AcDbCircle
 10
17.011398
 20
-155.877962
 30
0.0
 40
8.5
210
0.0
220
0.0
230
1.0
100
AcDbArc
 50
30.0
 51
90.0
  0
ARC
  5
126
100
AcDbEntity
  8
0
390
0
  6
Continuous
 62
     7
100
AcDbCircle
 10
17.011398
 20
-155.877962
 30
0.0
 40
5.0
210
0.0
220
0.0
230
1.0
100
AcDbArc
 50
150.0
 51
330.0
  0
ARC
  5
127
100
AcDbEntity
  8
0
390
0
  6
Continuous
 62
     7
100
AcDbCircle
 10
17.011398
 20
-155.877962
 30
0.0
 40
5.0
210
0.0
220
0.0
230
1.0
100
AcDbArc
 50
330.0
 51
150.0
  0
ARC
  5
128
100
AcDbEntity
  8
0
390
0
  6
Continuous
 62
     7
100
AcDbCircle
 10
17.011398
 20
-155.877962
 30
0.0
 40
9.8
210
0.0
220
0.0
230
1.0
100
AcDbArc
 50
299.848215
 51
300.151785
  0
ARC
  5
129
100
AcDbEntity
  8
0
390
0
  6
Continuous
 62
     7
100
AcDbCircle
 10
17.011398
 20
-155.877962
 30
0.0
 40
9.8
210
0.0
220
0.0
230
1.0
100
AcDbArc
 50
239.848215
 51
240.151785
  0
ARC
  5
12A
100
AcDbEntity
  8
0
390
0
  6
Continuous
 62
     7
100
AcDbCircle
 10
17.011398
 20
-155.877962
 30
0.0
 40
9.8
210
0.0
220
0.0
230
1.0
100
AcDbArc
 50
179.848215
 51
180.151785
  0
ARC
  5
12B
100
AcDbEntity
  8
0
390
0
  6
Continuous
 62
     7
100
AcDbCircle
 10
17.011398
 20
-155.877962
 30
0.0
 40
9.8
210
0.0
220
0.0
230
1.0
100
AcDbArc
 50
119.848215
 51
120.151785
  0
ARC
  5
12C
100
AcDbEntity
  8
0
390
0
  6
Continuous
 62
     7
100
AcDbCircle
 10
17.011398
 20
-155.877962
 30
0.0
 40
9.8
210
0.0
220
0.0
230
1.0
100
AcDbArc
 50
359.848215
 51
0.151785
  0
LINE
  5
12D
100
AcDbEntity
  8
0
390
0
  6
Continuous
 62
     7
100
AcDbLine
 10
9.650182
 20
-160.127962
 30
0.0
 11
12.088932
 21
-164.352
 31
0.0
  0
ARC
  5
12E
100
AcDbEntity
  8
0
390
0
  6
Continuous
 62
     7
100
AcDbCircle
 10
17.011398
 20
-155.877962
 30
0.0
 40
8.5
210
0.0
220
0.0
230
1.0
100
AcDbArc
 50
210.0
 51
270.0
  0
LINE
  5
12F
100
AcDbEntity
  8
0
390
0
  6
Continuous
 62
     7
100
AcDbLine
 10
12.133899
 20
-164.377962
 30
0.0
 11
17.011398
 21
-164.377962
 31
0.0
  0
ARC
  5
130
100
AcDbEntity
  8
0
390
0
  6
Continuous
 62
     7
100
AcDbCircle
 10
17.011398
 20
-155.877962
 30
0.0
 40
9.8
210
0.0
220
0.0
230
1.0
100
AcDbArc
 50
239.848215
 51
240.151785
  0
ARC
  5
131
100
AcDbEntity
  8
0
390
0
  6
Continuous
 62
     7
100
AcDbCircle
 10
17.011398
 20
-155.877962
 30
0.0
 40
8.5
210
0.0
220
0.0
230
1.0
100
AcDbArc
 50
150.0
 51
210.0
  0
LINE
  5
132
100
AcDbEntity
  8
0
390
0
  6
Continuous
 62
     7
100
AcDbLine
 10
9.650182
 20
-151.627962
 30
0.0
 11
7.211432
 21
-155.852
 31
0.0
  0
ARC
  5
133
100
AcDbEntity
  8
0
390
0
  6
Continuous
 62
     7
100
AcDbCircle
 10
17.011398
 20
-155.877962
 30
0.0
 40
9.8
210
0.0
220
0.0
230
1.0
100
AcDbArc
 50
179.848215
 51
180.151785
  0
LINE
  5
134
100
AcDbEntity
  8
0
390
0
  6
Continuous
 62
     7
100
AcDbLine
 10
7.211432
 20
-155.903923
 30
0.0
 11
9.650182
 21
-160.127962
 31
0.0
  0
LINE
  5
135
100
AcDbEntity
  8
0
390
0
  6
Continuous
 62
     7
100
AcDbLine
 10
17.011398
 20
-147.377962
 30
0.0
 11
12.133899
 21
-147.377962
 31
0.0
  0
ARC
  5
136
100
AcDbEntity
  8
0
390
0
  6
Continuous
 62
     7
100
AcDbCircle
 10
17.011398
 20
-155.877962
 30
0.0
 40
8.5
210
0.0
220
0.0
230
1.0
100
AcDbArc
 50
90.0
 51
150.0
  0
LINE
  5
137
100
AcDbEntity
  8
0
390
0
  6
Continuous
 62
     7
100
AcDbLine
 10
12.088932
 20
-147.403923
 30
0.0
 11
9.650182
 21
-151.627962
 31
0.0
  0
ARC
  5
138
100
AcDbEntity
  8
0
390
0
  6
Continuous
 62
     7
100
AcDbCircle
 10
17.011398
 20
-155.877962
 30
0.0
 40
9.8
210
0.0
220
0.0
230
1.0
100
AcDbArc
 50
119.848215
 51
120.151785
  0
ARC
  5
139
100
AcDbEntity
  8
0
390
0
  6
Continuous
 62
     7
100
AcDbCircle
 10
17.011398
 20
-155.877962
 30
0.0
 40
8.5
210
0.0
220
0.0
230
1.0
100
AcDbArc
 50
330.0
 51
30.0
  0
LINE
  5
13A
100
AcDbEntity
  8
0
390
0
  6
Continuous
 62
     7
100
AcDbLine
 10
24.372614
 20
-160.127962
 30
0.0
 11
26.811364
 21
-155.903923
 31
0.0
  0
ARC
  5
13B
100
AcDbEntity
  8
0
390
0
  6
Continuous
 62
     7
100
AcDbCircle
 10
17.011398
 20
-155.877962
 30
0.0
 40
9.8
210
0.0
220
0.0
230
1.0
100
AcDbArc
 50
359.848215
 51
0.151785
  0
LINE
  5
13C
100
AcDbEntity
  8
0
390
0
  6
Continuous
 62
     7
100
AcDbLine
 10
26.811364
 20
-155.852
 30
0.0
 11
24.372614
 21
-151.627962
 31
0.0
  0
ARC
  5
13D
100
AcDbEntity
  8
0
390
0
  6
Continuous
 62
     7
100
AcDbCircle
 10
17.011398
 20
-155.877962
 30
0.0
 40
9.8
210
0.0
220
0.0
230
1.0
100
AcDbArc
 50
299.848215
 51
300.151785
  0
LINE
  5
13E
100
AcDbEntity
  8
0
390
0
  6
Continuous
 62
     7
100
AcDbLine
 10
21.933864
 20
-164.352
 30
0.0
 11
24.372614
 21
-160.127962
 31
0.0
  0
ARC
  5
13F
100
AcDbEntity
  8
0
390
0
  6
Continuous
 62
     7
100
AcDbCircle
 10
17.011398
 20
-155.877962
 30
0.0
 40
8.5
210
0.0
220
0.0
230
1.0
100
AcDbArc
 50
270.0
 51
330.0
  0
LINE
  5
140
100
AcDbEntity
  8
0
390
0
  6
Continuous
 62
     7
100
AcDbLine
 10
17.011398
 20
-164.377962
 30
0.0
 11
21.888897
 21
-164.377962
 31
0.0
  0
LINE
  5
141
100
AcDbEntity
  8
0
390
0
  6
Continuous
 62
     7
100
AcDbLine
 10
-12.066136
 20
-164.352
 30
0.0
 11
-9.627386
 21
-160.127962
 31
0.0
  0
LINE
  5
142
100
AcDbEntity
  8
0
390
0
  6
Continuous
 62
     7
100
AcDbLine
 10
-9.627386
 20
-160.127962
 30
0.0
 11
-7.188636
 21
-155.903923
 31
0.0
  0
LINE
  5
143
100
AcDbEntity
  8
0
390
0
  6
Continuous
 62
     7
100
AcDbLine
 10
-9.627386
 20
-151.627962
 30
0.0
 11
-12.066136
 21
-147.403923
 31
0.0
  0
LINE
  5
144
100
AcDbEntity
  8
0
390
0
  6
Continuous
 62
     7
100
AcDbLine
 10
-7.188636
 20
-155.852
 30
0.0
 11
-9.627386
 21
-151.627962
 31
0.0
  0
LINE
  5
145
100
AcDbEntity
  8
0
390
0
  6
Continuous
 62
     7
100
AcDbLine
 10
-16.988602
 20
-147.377962
 30
0.0
 11
-21.866101
 21
-147.377962
 31
0.0
  0
LINE
  5
146
100
AcDbEntity
  8
0
390
0
  6
Continuous
 62
     7
100
AcDbLine
 10
-12.111103
 20
-147.377962
 30
0.0
 11
-16.988602
 21
-147.377962
 31
0.0
  0
LINE
  5
147
100
AcDbEntity
  8
0
390
0
  6
Continuous
 62
     7
100
AcDbLine
 10
-21.911068
 20
-147.403923
 30
0.0
 11
-24.349818
 21
-151.627962
 31
0.0
  0
LINE
  5
148
100
AcDbEntity
  8
0
390
0
  6
Continuous
 62
     7
100
AcDbLine
 10
-24.349818
 20
-151.627962
 30
0.0
 11
-26.788568
 21
-155.852
 31
0.0
  0
LINE
  5
149
100
AcDbEntity
  8
0
390
0
  6
Continuous
 62
     7
100
AcDbLine
 10
-26.788568
 20
-155.903923
 30
0.0
 11
-24.349818
 21
-160.127962
 31
0.0
  0
LINE
  5
14A
100
AcDbEntity
  8
0
390
0
  6
Continuous
 62
     7
100
AcDbLine
 10
-24.349818
 20
-160.127962
 30
0.0
 11
-21.911068
 21
-164.352
 31
0.0
  0
LINE
  5
14B
100
AcDbEntity
  8
0
390
0
  6
Continuous
 62
     7
100
AcDbLine
 10
-16.988602
 20
-164.377962
 30
0.0
 11
-12.111103
 21
-164.377962
 31
0.0
  0
LINE
  5
14C
100
AcDbEntity
  8
0
390
0
  6
Continuous
 62
     7
100
AcDbLine
 10
-21.866101
 20
-164.377962
 30
0.0
 11
-16.988602
 21
-164.377962
 31
0.0
  0
ARC
  5
14D
100
AcDbEntity
  8
0
390
0
  6
Continuous
 62
     7
100
AcDbCircle
 10
-16.988602
 20
-155.877962
 30
0.0
 40
5.0
210
0.0
220
0.0
230
1.0
100
AcDbArc
 50
150.0
 51
330.0
  0
ARC
  5
14E
100
AcDbEntity
  8
0
390
0
  6
Continuous
 62
     7
100
AcDbCircle
 10
-16.988602
 20
-155.877962
 30
0.0
 40
5.0
210
0.0
220
0.0
230
1.0
100
AcDbArc
 50
330.0
 51
150.0
  0
ARC
  5
14F
100
AcDbEntity
  8
0
390
0
  6
Continuous
 62
     7
100
AcDbCircle
 10
-16.988602
 20
-155.877962
 30
0.0
 40
9.8
210
0.0
220
0.0
230
1.0
100
AcDbArc
 50
59.848215
 51
60.151785
  0
ARC
  5
150
100
AcDbEntity
  8
0
390
0
  6
Continuous
 62
     7
100
AcDbCircle
 10
-16.988602
 20
-155.877962
 30
0.0
 40
8.5
210
0.0
220
0.0
230
1.0
100
AcDbArc
 50
30.0
 51
90.0
  0
LINE
  5
151
100
AcDbEntity
  8
0
390
0
  6
Continuous
 62
     7
100
AcDbLine
 10
-9.627386
 20
-151.627962
 30
0.0
 11
-12.066136
 21
-147.403923
 31
0.0
  0
ARC
  5
152
100
AcDbEntity
  8
0
390
0
  6
Continuous
 62
     7
100
AcDbCircle
 10
-16.988602
 20
-155.877962
 30
0.0
 40
9.8
210
0.0
220
0.0
230
1.0
100
AcDbArc
 50
59.848215
 51
60.151785
  0
LINE
  5
153
100
AcDbEntity
  8
0
390
0
  6
Continuous
 62
     7
100
AcDbLine
 10
-12.111103
 20
-147.377962
 30
0.0
 11
-16.988602
 21
-147.377962
 31
0.0
  0
ARC
  5
154
100
AcDbEntity
  8
0
390
0
  6
Continuous
 62
     7
100
AcDbCircle
 10
-16.988602
 20
-155.877962
 30
0.0
 40
8.5
210
0.0
220
0.0
230
1.0
100
AcDbArc
 50
150.0
 51
210.0
  0
ARC
  5
155
100
AcDbEntity
  8
0
390
0
  6
Continuous
 62
     7
100
AcDbCircle
 10
-16.988602
 20
-155.877962
 30
0.0
 40
8.5
210
0.0
220
0.0
230
1.0
100
AcDbArc
 50
210.0
 51
270.0
  0
ARC
  5
156
100
AcDbEntity
  8
0
390
0
  6
Continuous
 62
     7
100
AcDbCircle
 10
-16.988602
 20
-155.877962
 30
0.0
 40
8.5
210
0.0
220
0.0
230
1.0
100
AcDbArc
 50
270.0
 51
330.0
  0
ARC
  5
157
100
AcDbEntity
  8
0
390
0
  6
Continuous
 62
     7
100
AcDbCircle
 10
-16.987775
 20
-155.877962
 30
0.0
 40
8.499284
210
0.0
220
0.0
230
1.0
100
AcDbArc
 50
329.997213
 51
30.002787
  0
ARC
  5
158
100
AcDbEntity
  8
0
390
0
  6
Continuous
 62
     7
100
AcDbCircle
 10
-16.988602
 20
-155.877962
 30
0.0
 40
8.5
210
0.0
220
0.0
230
1.0
100
AcDbArc
 50
30.0
 51
90.0
  0
ARC
  5
159
100
AcDbEntity
  8
0
390
0
  6
Continuous
 62
     7
100
AcDbCircle
 10
-16.988602
 20
-155.877962
 30
0.0
 40
8.5
210
0.0
220
0.0
230
1.0
100
AcDbArc
 50
90.0
 51
150.0
  0
ARC
  5
15A
100
AcDbEntity
  8
0
390
0
  6
Continuous
 62
     7
100
AcDbCircle
 10
-16.988602
 20
-155.877962
 30
0.0
 40
5.0
210
0.0
220
0.0
230
1.0
100
AcDbArc
 50
150.0
 51
330.0
  0
ARC
  5
15B
100
AcDbEntity
  8
0
390
0
  6
Continuous
 62
     7
100
AcDbCircle
 10
-16.988602
 20
-155.877962
 30
0.0
 40
5.0
210
0.0
220
0.0
230
1.0
100
AcDbArc
 50
330.0
 51
150.0
  0
ARC
  5
15C
100
AcDbEntity
  8
0
390
0
  6
Continuous
 62
     7
100
AcDbCircle
 10
-16.988602
 20
-155.877962
 30
0.0
 40
9.8
210
0.0
220
0.0
230
1.0
100
AcDbArc
 50
299.848215
 51
300.151785
  0
ARC
  5
15D
100
AcDbEntity
  8
0
390
0
  6
Continuous
 62
     7
100
AcDbCircle
 10
-16.988602
 20
-155.877962
 30
0.0
 40
9.8
210
0.0
220
0.0
230
0.9999999999999999
100
AcDbArc
 50
239.848215
 51
240.151785
  0
ARC
  5
15E
100
AcDbEntity
  8
0
390
0
  6
Continuous
 62
     7
100
AcDbCircle
 10
-16.988602
 20
-155.877962
 30
0.0
 40
9.8
210
0.0
220
0.0
230
1.0
100
AcDbArc
 50
179.848215
 51
180.151785
  0
ARC
  5
15F
100
AcDbEntity
  8
0
390
0
  6
Continuous
 62
     7
100
AcDbCircle
 10
-16.988602
 20
-155.877962
 30
0.0
 40
9.8
210
0.0
220
0.0
230
1.0
100
AcDbArc
 50
119.848215
 51
120.151785
  0
ARC
  5
160
100
AcDbEntity
  8
0
390
0
  6
Continuous
 62
     7
100
AcDbCircle
 10
-16.988602
 20
-155.877962
 30
0.0
 40
9.8
210
0.0
220
0.0
230
1.0
100
AcDbArc
 50
359.848215
 51
0.151785
  0
LINE
  5
161
100
AcDbEntity
  8
0
390
0
  6
Continuous
 62
     7
100
AcDbLine
 10
-24.349818
 20
-160.127962
 30
0.0
 11
-21.911068
 21
-164.352
 31
0.0
  0
ARC
  5
162
100
AcDbEntity
  8
0
390
0
  6
Continuous
 62
     7
100
AcDbCircle
 10
-16.988602
 20
-155.877962
 30
0.0
 40
8.5
210
0.0
220
0.0
230
1.0
100
AcDbArc
 50
210.0
 51
270.0
  0
LINE
  5
163
100
AcDbEntity
  8
0
390
0
  6
Continuous
 62
     7
100
AcDbLine
 10
-21.866101
 20
-164.377962
 30
0.0
 11
-16.988602
 21
-164.377962
 31
0.0
  0
ARC
  5
164
100
AcDbEntity
  8
0
390
0
  6
Continuous
 62
     7
100
AcDbCircle
 10
-16.988602
 20
-155.877962
 30
0.0
 40
9.8
210
0.0
220
0.0
230
0.9999999999999999
100
AcDbArc
 50
239.848215
 51
240.151785
  0
ARC
  5
165
100
AcDbEntity
  8
0
390
0
  6
Continuous
 62
     7
100
AcDbCircle
 10
-16.988602
 20
-155.877962
 30
0.0
 40
8.5
210
0.0
220
0.0
230
1.0
100
AcDbArc
 50
150.0
 51
210.0
  0
LINE
  5
166
100
AcDbEntity
  8
0
390
0
  6
Continuous
 62
     7
100
AcDbLine
 10
-24.349818
 20
-151.627962
 30
0.0
 11
-26.788568
 21
-155.852
 31
0.0
  0
ARC
  5
167
100
AcDbEntity
  8
0
390
0
  6
Continuous
 62
     7
100
AcDbCircle
 10
-16.988602
 20
-155.877962
 30
0.0
 40
9.8
210
0.0
220
0.0
230
1.0
100
AcDbArc
 50
179.848215
 51
180.151785
  0
LINE
  5
168
100
AcDbEntity
  8
0
390
0
  6
Continuous
 62
     7
100
AcDbLine
 10
-26.788568
 20
-155.903923
 30
0.0
 11
-24.349818
 21
-160.127962
 31
0.0
  0
ARC
  5
169
100
AcDbEntity
  8
0
390
0
  6
Continuous
 62
     7
100
AcDbCircle
 10
-16.988602
 20
-155.877962
 30
0.0
 40
8.5
210
0.0
220
0.0
230
1.0
100
AcDbArc
 50
90.0
 51
150.0
  0
LINE
  5
16A
100
AcDbEntity
  8
0
390
0
  6
Continuous
 62
     7
100
AcDbLine
 10
-16.988602
 20
-147.377962
 30
0.0
 11
-21.866101
 21
-147.377962
 31
0.0
  0
ARC
  5
16B
100
AcDbEntity
  8
0
390
0
  6
Continuous
 62
     7
100
AcDbCircle
 10
-16.988602
 20
-155.877962
 30
0.0
 40
9.8
210
0.0
220
0.0
230
1.0
100
AcDbArc
 50
119.848215
 51
120.151785
  0
LINE
  5
16C
100
AcDbEntity
  8
0
390
0
  6
Continuous
 62
     7
100
AcDbLine
 10
-21.911068
 20
-147.403923
 30
0.0
 11
-24.349818
 21
-151.627962
 31
0.0
  0
ARC
  5
16D
100
AcDbEntity
  8
0
390
0
  6
Continuous
 62
     7
100
AcDbCircle
 10
-16.988602
 20
-155.877962
 30
0.0
 40
8.5
210
0.0
220
0.0
230
1.0
100
AcDbArc
 50
330.0
 51
30.0
  0
LINE
  5
16E
100
AcDbEntity
  8
0
390
0
  6
Continuous
 62
     7
100
AcDbLine
 10
-9.627386
 20
-160.127962
 30
0.0
 11
-7.188636
 21
-155.903923
 31
0.0
  0
ARC
  5
16F
100
AcDbEntity
  8
0
390
0
  6
Continuous
 62
     7
100
AcDbCircle
 10
-16.988602
 20
-155.877962
 30
0.0
 40
9.8
210
0.0
220
0.0
230
1.0
100
AcDbArc
 50
359.848215
 51
0.151785
  0
LINE
  5
170
100
AcDbEntity
  8
0
390
0
  6
Continuous
 62
     7
100
AcDbLine
 10
-7.188636
 20
-155.852
 30
0.0
 11
-9.627386
 21
-151.627962
 31
0.0
  0
LINE
  5
171
100
AcDbEntity
  8
0
390
0
  6
Continuous
 62
     7
100
AcDbLine
 10
-12.066136
 20
-164.352
 30
0.0
 11
-9.627386
 21
-160.127962
 31
0.0
  0
ARC
  5
172
100
AcDbEntity
  8
0
390
0
  6
Continuous
 62
     7
100
AcDbCircle
 10
-16.988602
 20
-155.877962
 30
0.0
 40
9.8
210
0.0
220
0.0
230
1.0
100
AcDbArc
 50
299.848215
 51
300.151785
  0
LINE
  5
173
100
AcDbEntity
  8
0
390
0
  6
Continuous
 62
     7
100
AcDbLine
 10
-16.988602
 20
-164.377962
 30
0.0
 11
-12.111103
 21
-164.377962
 31
0.0
  0
ARC
  5
174
100
AcDbEntity
  8
0
390
0
  6
Continuous
 62
     7
100
AcDbCircle
 10
-16.988602
 20
-155.877962
 30
0.0
 40
8.5
210
0.0
220
0.0
230
1.0
100
AcDbArc
 50
270.0
 51
330.0
  0
CIRCLE
  5
175
100
AcDbEntity
  8
0
390
0
  6
Continuous
 62
     7
100
AcDbCircle
 10
17.011398
 20
-155.881485
 30
0.0
 40
4.600001
210
0.0
220
0.0
230
1.0
  0
LINE
  5
176
100
AcDbEntity
  8
0
390
0
  6
Continuous
 62
     7
100
AcDbLine
 10
21.611398
 20
-155.877962
 30
0.0
 11
21.597649
 21
-156.233355
 31
0.0
  0
ARC
  5
177
100
AcDbEntity
  8
0
390
0
  6
Continuous
 62
     7
100
AcDbCircle
 10
17.011398
 20
-155.877962
 30
0.0
 40
4.6
210
0.0
220
0.0
230
0.9999999999999999
100
AcDbArc
 50
0.0
 51
355.56894
  0
CIRCLE
  5
178
100
AcDbEntity
  8
0
390
0
  6
Continuous
 62
     7
100
AcDbCircle
 10
-16.988602
 20
-155.881485
 30
0.0
 40
4.600001
210
0.0
220
0.0
230
1.0
  0
LINE
  5
179
100
AcDbEntity
  8
0
390
0
  6
Continuous
 62
     7
100
AcDbLine
 10
-12.388602
 20
-155.877962
 30
0.0
 11
-12.402351
 21
-156.233355
 31
0.0
  0
ARC
  5
17A
100
AcDbEntity
  8
0
390
0
  6
Continuous
 62
     7
100
AcDbCircle
 10
-16.988602
 20
-155.877962
 30
0.0
 40
4.6
210
0.0
220
0.0
230
0.9999999999999999
100
AcDbArc
 50
0.0
 51
355.56894
  0
LINE
  5
17B
100
AcDbEntity
  8
0
390
0
  6
Continuous
 62
     7
100
AcDbLine
 10
-11.348602
 20
-143.377962
 30
0.0
 11
-11.348602
 21
-148.646728
 31
0.0
  0
LINE
  5
17C
100
AcDbEntity
  8
0
390
0
  6
Continuous
 62
     7
100
AcDbLine
 10
-11.348602
 20
-163.109195
 30
0.0
 11
-11.348602
 21
-168.377962
 31
0.0
  0
LINE
  5
17D
100
AcDbEntity
  8
0
390
0
  6
Continuous
 62
     7
100
AcDbLine
 10
11.371398
 20
-143.377962
 30
0.0
 11
-11.347793
 21
-143.377962
 31
0.0
  0
LINE
  5
17E
100
AcDbEntity
  8
0
390
0
  6
Continuous
 62
     7
100
AcDbLine
 10
-11.347793
 20
-143.377962
 30
0.0
 11
-11.348602
 21
-143.377962
 31
0.0
  0
LINE
  5
17F
100
AcDbEntity
  8
0
390
0
  6
Continuous
 62
     7
100
AcDbLine
 10
11.371398
 20
-168.377962
 30
0.0
 11
11.371398
 21
-163.109195
 31
0.0
  0
LINE
  5
180
100
AcDbEntity
  8
0
390
0
  6
Continuous
 62
     7
100
AcDbLine
 10
11.371398
 20
-148.646728
 30
0.0
 11
11.371398
 21
-143.377962
 31
0.0
  0
LINE
  5
181
100
AcDbEntity
  8
0
390
0
  6
Continuous
 62
     7
100
AcDbLine
 10
-11.348602
 20
-168.377962
 30
0.0
 11
11.370589
 21
-168.377962
 31
0.0
  0
LINE
  5
182
100
AcDbEntity
  8
0
390
0
  6
Continuous
 62
     7
100
AcDbLine
 10
11.370589
 20
-168.377962
 30
0.0
 11
11.371398
 21
-168.377962
 31
0.0
  0
LINE
  5
183
100
AcDbEntity
  8
0
390
0
  6
Continuous
 62
     7
100
AcDbLine
 10
-13.348602
 20
-164.37781
 30
0.0
 11
-13.348602
 21
-168.377962
 31
0.0
  0
LINE
  5
184
100
AcDbEntity
  8
0
390
0
  6
Continuous
 62
     7
100
AcDbLine
 10
13.371398
 20
-147.378113
 30
0.0
 11
13.371398
 21
-143.377962
 31
0.0
  0
LINE
  5
185
100
AcDbEntity
  8
0
390
0
  6
Continuous
 62
     7
100
AcDbLine
 10
13.371398
 20
-168.377962
 30
0.0
 11
13.371398
 21
-164.377812
 31
0.0
  0
LINE
  5
186
100
AcDbEntity
  8
0
390
0
  6
Continuous
 62
     7
100
AcDbLine
 10
-13.348602
 20
-143.377962
 30
0.0
 11
-13.348602
 21
-147.378111
 31
0.0
  0
LINE
  5
187
100
AcDbEntity
  8
0
390
0
  6
Continuous
 62
     7
100
AcDbLine
 10
11.371398
 20
-168.377962
 30
0.0
 11
13.371398
 21
-168.377962
 31
0.0
  0
LINE
  5
188
100
AcDbEntity
  8
0
390
0
  6
Continuous
 62
     7
100
AcDbLine
 10
-11.348595
 20
-168.377962
 30
0.0
 11
11.371266
 21
-168.377962
 31
0.0
  0
LINE
  5
189
100
AcDbEntity
  8
0
390
0
  6
Continuous
 62
     7
100
AcDbLine
 10
11.371266
 20
-168.377962
 30
0.0
 11
11.371398
 21
-168.377962
 31
0.0
  0
LINE
  5
18A
100
AcDbEntity
  8
0
390
0
  6
Continuous
 62
     7
100
AcDbLine
 10
-13.348602
 20
-168.377962
 30
0.0
 11
-11.348602
 21
-168.377962
 31
0.0
  0
LINE
  5
18B
100
AcDbEntity
  8
0
390
0
  6
Continuous
 62
     7
100
AcDbLine
 10
-13.348602
 20
-143.377962
 30
0.0
 11
-11.348602
 21
-143.377962
 31
0.0
  0
LINE
  5
18C
100
AcDbEntity
  8
0
390
0
  6
Continuous
 62
     7
100
AcDbLine
 10
-11.348595
 20
-143.377962
 30
0.0
 11
11.371266
 21
-143.377962
 31
0.0
  0
LINE
  5
18D
100
AcDbEntity
  8
0
390
0
  6
Continuous
 62
     7
100
AcDbLine
 10
11.371266
 20
-143.377962
 30
0.0
 11
11.371398
 21
-143.377962
 31
0.0
  0
LINE
  5
18E
100
AcDbEntity
  8
0
390
0
  6
Continuous
 62
     7
100
AcDbLine
 10
11.371398
 20
-143.377962
 30
0.0
 11
13.371398
 21
-143.377962
 31
0.0
  0
LINE
  5
18F
100
AcDbEntity
  8
0
390
0
  6
Continuous
 62
     7
100
AcDbLine
 10
13.371398
 20
-143.377962
 30
0.0
 11
13.371398
 21
-147.378113
 31
0.0
  0
LINE
  5
190
100
AcDbEntity
  8
0
390
0
  6
Continuous
 62
     7
100
AcDbLine
 10
13.371493
 20
-164.377812
 30
0.0
 11
13.371398
 21
-168.377962
 31
0.0
  0
LINE
  5
191
100
AcDbEntity
  8
0
390
0
  6
Continuous
 62
     7
100
AcDbLine
 10
11.371398
 20
-143.377962
 30
0.0
 11
13.371398
 21
-143.377962
 31
0.0
  0
LINE
  5
192
100
AcDbEntity
  8
0
390
0
  6
Continuous
 62
     7
100
AcDbLine
 10
11.371398
 20
-168.377962
 30
0.0
 11
11.371398
 21
-163.109195
 31
0.0
  0
LINE
  5
193
100
AcDbEntity
  8
0
390
0
  6
Continuous
 62
     7
100
AcDbLine
 10
11.371398
 20
-148.646728
 30
0.0
 11
11.371398
 21
-143.377962
 31
0.0
  0
LINE
  5
194
100
AcDbEntity
  8
0
390
0
  6
Continuous
 62
     7
100
AcDbLine
 10
13.371398
 20
-168.377962
 30
0.0
 11
11.371398
 21
-168.377962
 31
0.0
  0
LINE
  5
195
100
AcDbEntity
  8
0
390
0
  6
Continuous
 62
     7
100
AcDbLine
 10
-13.348602
 20
-168.377962
 30
0.0
 11
-13.348602
 21
-164.37781
 31
0.0
  0
LINE
  5
196
100
AcDbEntity
  8
0
390
0
  6
Continuous
 62
     7
100
AcDbLine
 10
-13.348697
 20
-147.378111
 30
0.0
 11
-13.348602
 21
-143.377962
 31
0.0
  0
LINE
  5
197
100
AcDbEntity
  8
0
390
0
  6
Continuous
 62
     7
100
AcDbLine
 10
-11.348602
 20
-168.377962
 30
0.0
 11
-13.348602
 21
-168.377962
 31
0.0
  0
LINE
  5
198
100
AcDbEntity
  8
0
390
0
  6
Continuous
 62
     7
100
AcDbLine
 10
-11.348602
 20
-143.377962
 30
0.0
 11
-11.348602
 21
-148.646728
 31
0.0
  0
LINE
  5
199
100
AcDbEntity
  8
0
390
0
  6
Continuous
 62
     7
100
AcDbLine
 10
-11.348602
 20
-163.109195
 30
0.0
 11
-11.348602
 21
-168.377962
 31
0.0
  0
LINE
  5
19A
100
AcDbEntity
  8
0
390
0
  6
Continuous
 62
     7
100
AcDbLine
 10
-13.348602
 20
-143.377962
 30
0.0
 11
-11.348602
 21
-143.377962
 31
0.0
  0
LINE
  5
19B
100
AcDbEntity
  8
0
390
0
  6
Continuous
 62
     7
100
AcDbLine
 10
141.942489
 20
-54.617724
 30
0.0
 11
141.942489
 21
-61.867169
 31
0.0
  0
LINE
  5
19C
100
AcDbEntity
  8
0
390
0
  6
Continuous
 62
     7
100
AcDbLine
 10
133.494412
 20
-54.617724
 30
0.0
 11
141.942489
 21
-54.617724
 31
0.0
  0
LINE
  5
19D
100
AcDbEntity
  8
0
390
0
  6
Continuous
 62
     7
100
AcDbLine
 10
133.494412
 20
-61.867169
 30
0.0
 11
133.494412
 21
-54.617724
 31
0.0
  0
ARC
  5
19E
100
AcDbEntity
  8
0
390
0
  6
Continuous
 62
     7
100
AcDbCircle
 10
137.899779
 20
-49.335752
 30
0.0
 40
13.28321
210
0.0
220
0.0
230
1.0
100
AcDbArc
 50
250.63109
 51
269.217834
  0
ARC
  5
19F
100
AcDbEntity
  8
0
390
0
  6
Continuous
 62
     7
100
AcDbCircle
 10
137.537285
 20
-49.336667
 30
0.0
 40
13.282292
210
0.0
220
0.0
230
1.0
100
AcDbArc
 50
270.781519
 51
289.369558
  0
LINE
  5
1A0
100
AcDbEntity
  8
0
390
0
  6
Continuous
 62
     7
100
AcDbLine
 10
133.442489
 20
-54.617724
 30
0.0
 11
133.442489
 21
-61.867169
 31
0.0
  0
LINE
  5
1A1
100
AcDbEntity
  8
0
390
0
  6
Continuous
 62
     7
100
AcDbLine
 10
124.994412
 20
-54.617724
 30
0.0
 11
133.442489
 21
-54.617724
 31
0.0
  0
LINE
  5
1A2
100
AcDbEntity
  8
0
390
0
  6
Continuous
 62
     7
100
AcDbLine
 10
124.994412
 20
-61.867169
 30
0.0
 11
124.994412
 21
-54.617724
 31
0.0
  0
ARC
  5
1A3
100
AcDbEntity
  8
0
390
0
  6
Continuous
 62
     7
100
AcDbCircle
 10
129.399356
 20
-49.33813
 30
0.0
 40
13.280827
210
0.0
220
0.0
230
0.9999999999999999
100
AcDbArc
 50
250.629407
 51
269.219516
  0
ARC
  5
1A4
100
AcDbEntity
  8
0
390
0
  6
Continuous
 62
     7
100
AcDbCircle
 10
129.037863
 20
-49.339921
 30
0.0
 40
13.279031
210
0.0
220
0.0
230
1.0
100
AcDbArc
 50
270.779216
 51
289.371861
  0
LINE
  5
1A5
100
AcDbEntity
  8
0
390
0
  6
Continuous
 62
     7
100
AcDbLine
 10
124.96845
 20
-54.617724
 30
0.0
 11
124.96845
 21
-61.867169
 31
0.0
  0
LINE
  5
1A6
100
AcDbEntity
  8
0
390
0
  6
Continuous
 62
     7
100
AcDbLine
 10
124.96845
 20
-61.867169
 30
0.0
 11
124.96845
 21
-62.617724
 31
0.0
  0
LINE
  5
1A7
100
AcDbEntity
  8
0
390
0
  6
Continuous
 62
     7
100
AcDbLine
 10
141.96845
 20
-61.867169
 30
0.0
 11
141.96845
 21
-54.617724
 31
0.0
  0
LINE
  5
1A8
100
AcDbEntity
  8
0
390
0
  6
Continuous
 62
     7
100
AcDbLine
 10
141.96845
 20
-62.617724
 30
0.0
 11
141.96845
 21
-61.867169
 31
0.0
  0
LINE
  5
1A9
100
AcDbEntity
  8
0
390
0
  6
Continuous
 62
     7
100
AcDbLine
 10
133.442489
 20
-54.617724
 30
0.0
 11
124.994412
 21
-54.617724
 31
0.0
  0
LINE
  5
1AA
100
AcDbEntity
  8
0
390
0
  6
Continuous
 62
     7
100
AcDbLine
 10
141.942489
 20
-54.617724
 30
0.0
 11
133.494412
 21
-54.617724
 31
0.0
  0
LINE
  5
1AB
100
AcDbEntity
  8
0
390
0
  6
Continuous
 62
     7
100
AcDbLine
 10
133.494412
 20
-54.617724
 30
0.0
 11
133.442489
 21
-54.617724
 31
0.0
  0
LINE
  5
1AC
100
AcDbEntity
  8
0
390
0
  6
Continuous
 62
     7
100
AcDbLine
 10
124.96845
 20
-54.617724
 30
0.0
 11
124.96845
 21
-61.867169
 31
0.0
  0
LINE
  5
1AD
100
AcDbEntity
  8
0
390
0
  6
Continuous
 62
     7
100
AcDbLine
 10
124.994412
 20
-54.617724
 30
0.0
 11
124.96845
 21
-54.617724
 31
0.0
  0
LINE
  5
1AE
100
AcDbEntity
  8
0
390
0
  6
Continuous
 62
     7
100
AcDbLine
 10
124.994412
 20
-61.867169
 30
0.0
 11
124.994412
 21
-54.617724
 31
0.0
  0
LINE
  5
1AF
100
AcDbEntity
  8
0
390
0
  6
Continuous
 62
     7
100
AcDbLine
 10
124.96845
 20
-61.867169
 30
0.0
 11
124.994412
 21
-61.867169
 31
0.0
  0
LINE
  5
1B0
100
AcDbEntity
  8
0
390
0
  6
Continuous
 62
     7
100
AcDbLine
 10
124.96845
 20
-62.617724
 30
0.0
 11
129.21845
 21
-62.617724
 31
0.0
  0
ARC
  5
1B1
100
AcDbEntity
  8
0
390
0
  6
Continuous
 62
     7
100
AcDbCircle
 10
129.399356
 20
-49.33813
 30
0.0
 40
13.280827
210
0.0
220
0.0
230
0.9999999999999999
100
AcDbArc
 50
250.629407
 51
269.219516
  0
LINE
  5
1B2
100
AcDbEntity
  8
0
390
0
  6
Continuous
 62
     7
100
AcDbLine
 10
124.994412
 20
-61.867169
 30
0.0
 11
124.96845
 21
-61.867169
 31
0.0
  0
LINE
  5
1B3
100
AcDbEntity
  8
0
390
0
  6
Continuous
 62
     7
100
AcDbLine
 10
124.96845
 20
-61.867169
 30
0.0
 11
124.96845
 21
-62.617724
 31
0.0
  0
LINE
  5
1B4
100
AcDbEntity
  8
0
390
0
  6
Continuous
 62
     7
100
AcDbLine
 10
137.71845
 20
-62.617724
 30
0.0
 11
141.96845
 21
-62.617724
 31
0.0
  0
LINE
  5
1B5
100
AcDbEntity
  8
0
390
0
  6
Continuous
 62
     7
100
AcDbLine
 10
129.21845
 20
-62.617724
 30
0.0
 11
137.71845
 21
-62.617724
 31
0.0
  0
LINE
  5
1B6
100
AcDbEntity
  8
0
390
0
  6
Continuous
 62
     7
100
AcDbLine
 10
124.96845
 20
-62.617724
 30
0.0
 11
129.21845
 21
-62.617724
 31
0.0
  0
LINE
  5
1B7
100
AcDbEntity
  8
0
390
0
  6
Continuous
 62
     7
100
AcDbLine
 10
141.942489
 20
-54.617724
 30
0.0
 11
141.942489
 21
-61.867169
 31
0.0
  0
LINE
  5
1B8
100
AcDbEntity
  8
0
390
0
  6
Continuous
 62
     7
100
AcDbLine
 10
141.96845
 20
-54.617724
 30
0.0
 11
141.942489
 21
-54.617724
 31
0.0
  0
LINE
  5
1B9
100
AcDbEntity
  8
0
390
0
  6
Continuous
 62
     7
100
AcDbLine
 10
141.96845
 20
-61.867169
 30
0.0
 11
141.96845
 21
-54.617724
 31
0.0
  0
LINE
  5
1BA
100
AcDbEntity
  8
0
390
0
  6
Continuous
 62
     7
100
AcDbLine
 10
141.942489
 20
-61.867169
 30
0.0
 11
141.96845
 21
-61.867169
 31
0.0
  0
LINE
  5
1BB
100
AcDbEntity
  8
0
390
0
  6
Continuous
 62
     7
100
AcDbLine
 10
133.442489
 20
-54.617724
 30
0.0
 11
133.442489
 21
-61.867169
 31
0.0
  0
LINE
  5
1BC
100
AcDbEntity
  8
0
390
0
  6
Continuous
 62
     7
100
AcDbLine
 10
133.494412
 20
-54.617724
 30
0.0
 11
133.442489
 21
-54.617724
 31
0.0
  0
LINE
  5
1BD
100
AcDbEntity
  8
0
390
0
  6
Continuous
 62
     7
100
AcDbLine
 10
133.494412
 20
-61.867169
 30
0.0
 11
133.494412
 21
-54.617724
 31
0.0
  0
LINE
  5
1BE
100
AcDbEntity
  8
0
390
0
  6
Continuous
 62
     7
100
AcDbLine
 10
133.442489
 20
-61.867169
 30
0.0
 11
133.494412
 21
-61.867169
 31
0.0
  0
LINE
  5
1BF
100
AcDbEntity
  8
0
390
0
  6
Continuous
 62
     7
100
AcDbLine
 10
141.96845
 20
-61.867169
 30
0.0
 11
141.96845
 21
-62.617724
 31
0.0
  0
LINE
  5
1C0
100
AcDbEntity
  8
0
390
0
  6
Continuous
 62
     7
100
AcDbLine
 10
124.96845
 20
-62.617724
 30
0.0
 11
124.96845
 21
-61.867169
 31
0.0
  0
ARC
  5
1C1
100
AcDbEntity
  8
0
390
0
  6
Continuous
 62
     7
100
AcDbCircle
 10
137.899779
 20
-49.335752
 30
0.0
 40
13.28321
210
0.0
220
0.0
230
1.0
100
AcDbArc
 50
250.63109
 51
269.217834
  0
LINE
  5
1C2
100
AcDbEntity
  8
0
390
0
  6
Continuous
 62
     7
100
AcDbLine
 10
129.21845
 20
-62.617724
 30
0.0
 11
137.71845
 21
-62.617724
 31
0.0
  0
ARC
  5
1C3
100
AcDbEntity
  8
0
390
0
  6
Continuous
 62
     7
100
AcDbCircle
 10
129.037863
 20
-49.339921
 30
0.0
 40
13.279031
210
0.0
220
0.0
230
1.0
100
AcDbArc
 50
270.779216
 51
289.371861
  0
LINE
  5
1C4
100
AcDbEntity
  8
0
390
0
  6
Continuous
 62
     7
100
AcDbLine
 10
133.494412
 20
-61.867169
 30
0.0
 11
133.442489
 21
-61.867169
 31
0.0
  0
LINE
  5
1C5
100
AcDbEntity
  8
0
390
0
  6
Continuous
 62
     7
100
AcDbLine
 10
141.96845
 20
-61.867169
 30
0.0
 11
141.942489
 21
-61.867169
 31
0.0
  0
ARC
  5
1C6
100
AcDbEntity
  8
0
390
0
  6
Continuous
 62
     7
100
AcDbCircle
 10
137.537285
 20
-49.336667
 30
0.0
 40
13.282292
210
0.0
220
0.0
230
1.0
100
AcDbArc
 50
270.781519
 51
289.369558
  0
LINE
  5
1C7
100
AcDbEntity
  8
0
390
0
  6
Continuous
 62
     7
100
AcDbLine
 10
137.71845
 20
-62.617724
 30
0.0
 11
141.96845
 21
-62.617724
 31
0.0
  0
LINE
  5
1C8
100
AcDbEntity
  8
0
390
0
  6
Continuous
 62
     7
100
AcDbLine
 10
141.96845
 20
-62.617724
 30
0.0
 11
141.96845
 21
-61.867169
 31
0.0
  0
LINE
  5
1C9
100
AcDbEntity
  8
0
390
0
  6
Continuous
 62
     7
100
AcDbLine
 10
138.06845
 20
-82.617724
 30
0.0
 11
133.46845
 21
-82.617724
 31
0.0
  0
LINE
  5
1CA
100
AcDbEntity
  8
0
390
0
  6
Continuous
 62
     7
100
AcDbLine
 10
133.46845
 20
-82.617724
 30
0.0
 11
128.86845
 21
-82.617724
 31
0.0
  0
LINE
  5
1CB
100
AcDbEntity
  8
0
390
0
  6
Continuous
 62
     7
100
AcDbLine
 10
138.06845
 20
-32.617724
 30
0.0
 11
133.46845
 21
-32.617724
 31
0.0
  0
LINE
  5
1CC
100
AcDbEntity
  8
0
390
0
  6
Continuous
 62
     7
100
AcDbLine
 10
133.46845
 20
-32.617724
 30
0.0
 11
128.86845
 21
-32.617724
 31
0.0
  0
SPLINE
  5
1CD
100
AcDbEntity
  8
0
390
0
  6
Continuous
 62
     7
100
AcDbSpline
210
0.0
220
0.0
230
1.0
 70
     4
 71
     3
 72
     8
 73
     4
 74
     0
 42
0.000001
 43
0.000001
 40
0.2494384851678247
 40
0.2494384851678247
 40
0.2494384851678247
 40
0.2494384851678247
 40
0.2499999999999999
 40
0.2499999999999999
 40
0.2499999999999999
 40
0.2499999999999999
 10
128.86845006622704
 20
-82.617724481991672
 30
0.0
 41
0.4999999999999997
 10
128.86845006622704
 20
-82.617724481991672
 30
0.0
 41
0.4999999999999997
 10
128.86846553686738
 20
-82.617724481991672
 30
0.0
 41
0.5000008407970843
 10
128.86849647799198
 20
-82.617724481991672
 30
0.0
 41
0.5000025223912537
  0
LINE
  5
1CE
100
AcDbEntity
  8
0
390
0
  6
Continuous
 62
     7
100
AcDbLine
 10
128.868497
 20
-82.617724
 30
0.0
 11
133.46845
 21
-82.617724
 31
0.0
  0
LINE
  5
1CF
100
AcDbEntity
  8
0
390
0
  6
Continuous
 62
     7
100
AcDbLine
 10
138.06845
 20
-32.617724
 30
0.0
 11
133.46845
 21
-32.617724
 31
0.0
  0
LINE
  5
1D0
100
AcDbEntity
  8
0
390
0
  6
Continuous
 62
     7
100
AcDbLine
 10
133.46845
 20
-82.617724
 30
0.0
 11
138.06845
 21
-82.617724
 31
0.0
  0
LINE
  5
1D1
100
AcDbEntity
  8
0
390
0
  6
Continuous
 62
     7
100
AcDbLine
 10
133.46845
 20
-32.617724
 30
0.0
 11
128.86845
 21
-32.617724
 31
0.0
  0
LINE
  5
1D2
100
AcDbEntity
  8
0
390
0
  6
Continuous
 62
     7
100
AcDbLine
 10
137.569772
 20
-10.017724
 30
0.0
 11
137.467186
 21
-10.017724
 31
0.0
  0
LINE
  5
1D3
100
AcDbEntity
  8
0
390
0
  6
Continuous
 62
     7
100
AcDbLine
 10
145.96845
 20
13.376853
 30
0.0
 11
145.96845
 21
-10.017724
 31
0.0
  0
LINE
  5
1D4
100
AcDbEntity
  8
0
390
0
  6
Continuous
 62
     7
100
AcDbLine
 10
120.96845
 20
-10.017724
 30
0.0
 11
120.96845
 21
13.376853
 31
0.0
  0
LINE
  5
1D5
100
AcDbEntity
  8
0
390
0
  6
Continuous
 62
     7
100
AcDbLine
 10
145.96845
 20
-10.017724
 30
0.0
 11
139.116436
 21
-10.017724
 31
0.0
  0
LINE
  5
1D6
100
AcDbEntity
  8
0
390
0
  6
Continuous
 62
     7
100
AcDbLine
 10
139.116436
 20
-10.017724
 30
0.0
 11
139.06845
 21
-10.017724
 31
0.0
  0
LINE
  5
1D7
100
AcDbEntity
  8
0
390
0
  6
Continuous
 62
     7
100
AcDbLine
 10
139.06845
 20
-10.017724
 30
0.0
 11
137.565095
 21
-10.017724
 31
0.0
  0
LINE
  5
1D8
100
AcDbEntity
  8
0
390
0
  6
Continuous
 62
     7
100
AcDbLine
 10
137.565095
 20
-10.017724
 30
0.0
 11
129.372173
 21
-10.017724
 31
0.0
  0
LINE
  5
1D9
100
AcDbEntity
  8
0
390
0
  6
Continuous
 62
     7
100
AcDbLine
 10
129.372173
 20
-10.017724
 30
0.0
 11
127.86845
 21
-10.017724
 31
0.0
  0
LINE
  5
1DA
100
AcDbEntity
  8
0
390
0
  6
Continuous
 62
     7
100
AcDbLine
 10
127.86845
 20
-10.017724
 30
0.0
 11
120.96845
 21
-10.017724
 31
0.0
  0
LINE
  5
1DB
100
AcDbEntity
  8
0
390
0
  6
Continuous
 62
     7
100
AcDbLine
 10
145.96845
 20
-10.017724
 30
0.0
 11
145.96845
 21
13.376852
 31
0.0
  0
LINE
  5
1DC
100
AcDbEntity
  8
0
390
0
  6
Continuous
 62
     7
100
AcDbLine
 10
120.96845
 20
-10.017724
 30
0.0
 11
120.96845
 21
13.376852
 31
0.0
  0
LINE
  5
1DD
100
AcDbEntity
  8
0
390
0
  6
Continuous
 62
     7
100
AcDbLine
 10
120.96845
 20
-10.017724
 30
0.0
 11
127.804873
 21
-10.017724
 31
0.0
  0
LINE
  5
1DE
100
AcDbEntity
  8
0
390
0
  6
Continuous
 62
     7
100
AcDbLine
 10
127.804873
 20
-10.017724
 30
0.0
 11
129.372837
 21
-10.017724
 31
0.0
  0
LINE
  5
1DF
100
AcDbEntity
  8
0
390
0
  6
Continuous
 62
     7
100
AcDbLine
 10
129.372837
 20
-10.017724
 30
0.0
 11
137.564545
 21
-10.017724
 31
0.0
  0
LINE
  5
1E0
100
AcDbEntity
  8
0
390
0
  6
Continuous
 62
     7
100
AcDbLine
 10
137.564545
 20
-10.017724
 30
0.0
 11
139.134808
 21
-10.017724
 31
0.0
  0
LINE
  5
1E1
100
AcDbEntity
  8
0
390
0
  6
Continuous
 62
     7
100
AcDbLine
 10
139.134808
 20
-10.017724
 30
0.0
 11
139.168717
 21
-10.017724
 31
0.0
  0
LINE
  5
1E2
100
AcDbEntity
  8
0
390
0
  6
Continuous
 62
     7
100
AcDbLine
 10
139.168717
 20
-10.017724
 30
0.0
 11
145.96845
 21
-10.017724
 31
0.0
  0
LINE
  5
1E3
100
AcDbEntity
  8
0
390
0
  6
Continuous
 62
     7
100
AcDbLine
 10
138.06845
 20
-82.617724
 30
0.0
 11
138.06845
 21
-62.617724
 31
0.0
  0
LINE
  5
1E4
100
AcDbEntity
  8
0
390
0
  6
Continuous
 62
     7
100
AcDbLine
 10
138.06845
 20
-54.617724
 30
0.0
 11
138.06845
 21
-32.617724
 31
0.0
  0
LINE
  5
1E5
100
AcDbEntity
  8
0
390
0
  6
Continuous
 62
     7
100
AcDbLine
 10
128.86845
 20
-32.617724
 30
0.0
 11
128.86845
 21
-54.617724
 31
0.0
  0
LINE
  5
1E6
100
AcDbEntity
  8
0
390
0
  6
Continuous
 62
     7
100
AcDbLine
 10
128.86845
 20
-62.617724
 30
0.0
 11
128.86845
 21
-82.617724
 31
0.0
  0
LINE
  5
1E7
100
AcDbEntity
  8
0
390
0
  6
Continuous
 62
     7
100
AcDbLine
 10
137.56845
 20
-32.617724
 30
0.0
 11
137.56845
 21
-10.017724
 31
0.0
  0
LINE
  5
1E8
100
AcDbEntity
  8
0
390
0
  6
Continuous
 62
     7
100
AcDbLine
 10
129.36845
 20
-10.017724
 30
0.0
 11
129.36845
 21
-32.617724
 31
0.0
  0
LINE
  5
1E9
100
AcDbEntity
  8
0
390
0
  6
Continuous
 62
     7
100
AcDbLine
 10
120.96845
 20
13.376853
 30
0.0
 11
125.86845
 21
13.376853
 31
0.0
  0
ARC
  5
1EA
100
AcDbEntity
  8
0
390
0
  6
Continuous
 62
     7
100
AcDbCircle
 10
125.868451
 20
15.376852
 30
0.0
 40
1.999999
210
0.0
220
0.0
230
1.0
100
AcDbArc
 50
269.999957
 51
0.000043
  0
LINE
  5
1EB
100
AcDbEntity
  8
0
390
0
  6
Continuous
 62
     7
100
AcDbLine
 10
127.86845
 20
-10.017724
 30
0.0
 11
127.86845
 21
17.011904
 31
0.0
  0
ARC
  5
1EC
100
AcDbEntity
  8
0
390
0
  6
Continuous
 62
     7
100
AcDbCircle
 10
133.46845
 20
17.011904
 30
0.0
 40
5.6
210
0.0
220
0.0
230
1.0
100
AcDbArc
 50
360.0
 51
180.0
  0
LINE
  5
1ED
100
AcDbEntity
  8
0
390
0
  6
Continuous
 62
     7
100
AcDbLine
 10
139.06845
 20
17.011904
 30
0.0
 11
139.06845
 21
-10.017724
 31
0.0
  0
ARC
  5
1EE
100
AcDbEntity
  8
0
390
0
  6
Continuous
 62
     7
100
AcDbCircle
 10
141.068449
 20
15.376852
 30
0.0
 40
1.999999
210
0.0
220
0.0
230
1.0
100
AcDbArc
 50
179.999957
 51
270.000043
  0
LINE
  5
1EF
100
AcDbEntity
  8
0
390
0
  6
Continuous
 62
     7
100
AcDbLine
 10
141.06845
 20
13.376853
 30
0.0
 11
145.96845
 21
13.376853
 31
0.0
  0
ENDSEC
  0
SECTION
  2
OBJECTS
  0
DICTIONARY
  5
19
100
AcDbDictionary
280
     0
281
     1
  3
ACAD_GROUP
350
1A
  3
ACAD_MLINESTYLE
350
1B
  3
ACAD_LAYOUT
350
1E
  3
ACAD_PLOTSETTINGS
350
22
  3
ACAD_PLOTSTYLENAME
350
1F
  3
ACAD_WIPEOUT_VARS
350
23
  0
DICTIONARY
  5
1A
102
{ACAD_REACTORS
330
19
102
}
100
AcDbDictionary
280
     0
281
     1
  0
DICTIONARY
  5
1B
102
{ACAD_REACTORS
330
19
102
}
100
AcDbDictionary
280
     0
281
     1
  3
Standard
350
1C
  0
MLINESTYLE
  5
1C
102
{ACAD_REACTORS
330
1B
102
}
100
AcDbMlineStyle
  2
Standard
 70
     0
  3

 62
     0
 51
90.0
 52
90.0
 71
     2
 49
0.5
 62
   256
  6
ByLayer
 49
-0.5
 62
   256
  6
ByLayer
  0
ACDBDICTIONARYWDFLT
  5
1F
102
{ACAD_REACTORS
330
19
102
}
100
AcDbDictionary
281
     1
  3
Normal
350
1D
100
AcDbDictionaryWithDefault
340
1D
  0
ACDBPLACEHOLDER
  5
1D
102
{ACAD_REACTORS
330
1F
102
}
  0
LAYOUT
  5
20
102
{ACAD_REACTORS
330
1E
102
}
100
AcDbPlotSettings
  1

  2

  4

  6

 40
0.0
 41
0.0
 42
0.0
 43
0.0
 44
0.0
 45
0.0
 46
0.0
 47
0.0
 48
0.0
 49
0.0
140
0.0
141
0.0
142
1.0
143
1.0
 70
  1024
 72
     0
 73
     0
 74
     0
  7

 75
     0
147
1.0
148
0.0
149
0.0
100
AcDbLayout
  1
Model
 70
     0
 71
     1
 10
0.0
 20
0.0
 11
0.0
 21
0.0
 12
0.0
 22
0.0
 32
0.0
 14
0.0
 24
0.0
 34
0.0
 15
0.0
 25
0.0
 35
0.0
146
0.0
 13
0.0
 23
0.0
 33
0.0
 16
0.0
 26
0.0
 36
0.0
 17
0.0
 27
0.0
 37
0.0
 76
     0
330
A
331
0
345
0
346
0
  0
LAYOUT
  5
21
102
{ACAD_REACTORS
330
1E
102
}
100
AcDbPlotSettings
  1

  2

  4

  6

 40
0.0
 41
0.0
 42
0.0
 43
0.0
 44
0.0
 45
0.0
 46
0.0
 47
0.0
 48
0.0
 49
0.0
140
0.0
141
0.0
142
1.0
143
1.0
 70
     0
 72
     0
 73
     0
 74
     0
  7

 75
     0
147
1.0
148
0.0
149
0.0
100
AcDbLayout
  1
Layout1
 70
     0
 71
     2
 10
0.0
 20
0.0
 11
0.0
 21
0.0
 12
0.0
 22
0.0
 32
0.0
 14
0.0
 24
0.0
 34
0.0
 15
0.0
 25
0.0
 35
0.0
146
0.0
 13
0.0
 23
0.0
 33
0.0
 16
0.0
 26
0.0
 36
0.0
 17
0.0
 27
0.0
 37
0.0
 76
     0
330
B
331
0
345
0
346
0
  0
DICTIONARY
  5
1E
102
{ACAD_REACTORS
330
19
102
}
100
AcDbDictionary
280
     0
281
     1
  3
Layout1
350
21
  3
Model
350
20
  0
DICTIONARY
  5
22
102
{ACAD_REACTORS
330
19
102
}
100
AcDbDictionary
280
     0
281
     1
  0
WIPEOUTVARIABLES
  5
23
100
AcDbWipeoutVariables
 70
     1
  0
ENDSEC
  0
EOF
