  0
SECTION
  2
HEADER
  9
$ACADVER
  1
AC1015
  9
$ACADMAINTVER
 70
     6
  9
$DWGCODEPAGE
  3
DOS932
  9
$INSBASE
 10
0.0
 20
0.0
 30
0.0
  9
$EXTMIN
 10
-128.124234
 20
-337.155187
 30
0.0
  9
$EXTMAX
 10
396.810113
 20
123.800102
 30
9.906
  9
$LIMMIN
 10
-128.124234
 20
-337.155187
  9
$LIMMAX
 10
396.810113
 20
123.800102
  9
$ORTHOMODE
 70
     0
  9
$REGENMODE
 70
     1
  9
$FILLMODE
 70
     1
  9
$QTEXTMODE
 70
     0
  9
$MIRRTEXT
 70
     1
  9
$LTSCALE
 40
10.0
  9
$ATTMODE
 70
     1
  9
$TEXTSIZE
 40
0.2
  9
$TRACEWID
 40
0.05
  9
$TEXTSTYLE
  7
Standard
  9
$CLAYER
  8
0
  9
$CELTYPE
  6
Continuous
  9
$CECOLOR
 62
   256
  9
$CELTSCALE
 40
1.0
  9
$DISPSILH
 70
     0
  9
$DIMSCALE
 40
1.0
  9
$DIMASZ
 40
1.40208
  9
$DIMEXO
 40
1.40208
  9
$DIMDLI
 40
0.38
  9
$DIMRND
 40
0.0
  9
$DIMDLE
 40
0.0
  9
$DIMEXE
 40
1.05156
  9
$DIMTP
 40
0.0
  9
$DIMTM
 40
0.0
  9
$DIMTXT
 40
3.5052
  9
$DIMCEN
 40
0.09
  9
$DIMTSZ
 40
0.0
  9
$DIMTOL
 70
     0
  9
$DIMLIM
 70
     0
  9
$DIMTIH
 70
     0
  9
$DIMTOH
 70
     0
  9
$DIMSE1
 70
     0
  9
$DIMSE2
 70
     0
  9
$DIMTAD
 70
     1
  9
$DIMZIN
 70
     0
  9
$DIMBLK
  1

  9
$DIMASO
 70
     1
  9
$DIMSHO
 70
     1
  9
$DIMPOST
  1

  9
$DIMAPOST
  1

  9
$DIMALT
 70
     0
  9
$DIMALTD
 70
     2
  9
$DIMALTF
 40
25.4
  9
$DIMLFAC
 40
1.0
  9
$DIMTOFL
 70
     0
  9
$DIMTVP
 40
0.0
  9
$DIMTIX
 70
     0
  9
$DIMSOXD
 70
     0
  9
$DIMSAH
 70
     0
  9
$DIMBLK1
  1

  9
$DIMBLK2
  1

  9
$DIMSTYLE
  2
Standard
  9
$DIMCLRD
 70
     7
  9
$DIMCLRE
 70
     7
  9
$DIMCLRT
 70
     7
  9
$DIMTFAC
 40
0.5
  9
$DIMGAP
 40
1.7526
  9
$DIMJUST
 70
     0
  9
$DIMSD1
 70
     0
  9
$DIMSD2
 70
     0
  9
$DIMTOLJ
 70
     1
  9
$DIMTZIN
 70
     0
  9
$DIMALTZ
 70
     0
  9
$DIMALTTZ
 70
     0
  9
$DIMUPT
 70
     0
  9
$DIMDEC
 70
     2
  9
$DIMTDEC
 70
     4
  9
$DIMALTU
 70
     2
  9
$DIMALTTD
 70
     2
  9
$DIMTXSTY
  7
Standard
  9
$DIMAUNIT
 70
     0
  9
$DIMADEC
 70
     0
  9
$DIMALTRND
 40
0.0
  9
$DIMAZIN
 70
     0
  9
$DIMDSEP
 70
     0
  9
$DIMATFIT
 70
     3
  9
$DIMFRAC
 70
     0
  9
$DIMLDRBLK
  1

  9
$DIMLUNIT
 70
     2
  9
$DIMLWD
 70
     0
  9
$DIMLWE
 70
     0
  9
$DIMTMOVE
 70
     0
  9
$LUNITS
 70
     2
  9
$LUPREC
 70
     4
  9
$SKETCHINC
 40
0.1
  9
$FILLETRAD
 40
0.0
  9
$AUNITS
 70
     0
  9
$AUPREC
 70
     0
  9
$MENU
  1
acad
  9
$ELEVATION
 40
0.0
  9
$PELEVATION
 40
0.0
  9
$THICKNESS
 40
0.0
  9
$LIMCHECK
 70
     0
  9
$CHAMFERA
 40
0.0
  9
$CHAMFERB
 40
0.0
  9
$CHAMFERC
 40
0.0
  9
$CHAMFERD
 40
0.0
  9
$SKPOLY
 70
     0
  9
$TDCREATE
 40
2459746.430254630
  9
$TDUCREATE
 40
0.000000000
  9
$TDUPDATE
 40
2459746.055243055
  9
$TDUUPDATE
 40
0.000000000
  9
$TDINDWG
 40
0.0000000000
  9
$TDUSRTIMER
 40
0.0000000000
  9
$USRTIMER
 70
     1
  9
$ANGBASE
 50
0.0
  9
$ANGDIR
 70
     0
  9
$PDMODE
 70
     0
  9
$PDSIZE
 40
0.0
  9
$PLINEWID
 40
0.0
  9
$SPLFRAME
 70
     0
  9
$SPLINETYPE
 70
     6
  9
$SPLINESEGS
 70
     8
  9
$HANDSEED
  5
16B
  9
$SURFTAB1
 70
     6
  9
$SURFTAB2
 70
     6
  9
$SURFTYPE
 70
     6
  9
$SURFU
 70
     6
  9
$SURFV
 70
     6
  9
$UCSBASE
  2

  9
$UCSNAME
  2

  9
$UCSORG
 10
0.0
 20
0.0
 30
0.0
  9
$UCSXDIR
 10
1.0
 20
0.0
 30
0.0
  9
$UCSYDIR
 10
0.0
 20
1.0
 30
0.0
  9
$UCSORTHOREF
  2

  9
$UCSORTHOVIEW
 70
     0
  9
$UCSORGTOP
 10
0.0
 20
0.0
 30
0.0
  9
$UCSORGBOTTOM
 10
0.0
 20
0.0
 30
0.0
  9
$UCSORGLEFT
 10
0.0
 20
0.0
 30
0.0
  9
$UCSORGRIGHT
 10
0.0
 20
0.0
 30
0.0
  9
$UCSORGFRONT
 10
0.0
 20
0.0
 30
0.0
  9
$UCSORGBACK
 10
0.0
 20
0.0
 30
0.0
  9
$PUCSBASE
  2

  9
$PUCSNAME
  2

  9
$PUCSORG
 10
0.0
 20
0.0
 30
0.0
  9
$PUCSXDIR
 10
1.0
 20
0.0
 30
0.0
  9
$PUCSYDIR
 10
0.0
 20
1.0
 30
0.0
  9
$PUCSORTHOREF
  2

  9
$PUCSORTHOVIEW
 70
     0
  9
$PUCSORGTOP
 10
0.0
 20
0.0
 30
0.0
  9
$PUCSORGBOTTOM
 10
0.0
 20
0.0
 30
0.0
  9
$PUCSORGLEFT
 10
0.0
 20
0.0
 30
0.0
  9
$PUCSORGRIGHT
 10
0.0
 20
0.0
 30
0.0
  9
$PUCSORGFRONT
 10
0.0
 20
0.0
 30
0.0
  9
$PUCSORGBACK
 10
0.0
 20
0.0
 30
0.0
  9
$USERI1
 70
     0
  9
$USERI2
 70
     0
  9
$USERI3
 70
     0
  9
$USERI4
 70
     0
  9
$USERI5
 70
     0
  9
$USERR1
 40
0.0
  9
$USERR2
 40
0.0
  9
$USERR3
 40
0.0
  9
$USERR4
 40
0.0
  9
$USERR5
 40
0.0
  9
$WORLDVIEW
 70
     1
  9
$SHADEDGE
 70
     3
  9
$SHADEDIF
 70
    70
  9
$TILEMODE
 70
     1
  9
$MAXACTVP
 70
    16
  9
$PINSBASE
 10
0.0
 20
0.0
 30
0.0
  9
$PLIMCHECK
 70
     0
  9
$PEXTMIN
 10
1.000000E+20
 20
1.000000E+20
 30
1.000000E+20
  9
$PEXTMAX
 10
-1.000000E+20
 20
-1.000000E+20
 30
-1.000000E+20
  9
$PLIMMIN
 10
0.0
 20
0.0
  9
$PLIMMAX
 10
12.0
 20
9.0
  9
$UNITMODE
 70
     0
  9
$VISRETAIN
 70
     0
  9
$PLINEGEN
 70
     1
  9
$PSLTSCALE
 70
     0
  9
$TREEDEPTH
 70
  3020
  9
$CMLSTYLE
  2
Standard
  9
$CMLJUST
 70
     0
  9
$CMLSCALE
 40
1.0
  9
$PROXYGRAPHICS
 70
     0
  9
$MEASUREMENT
 70
     0
  9
$CELWEIGHT
370
     0
  9
$ENDCAPS
280
     0
  9
$JOINSTYLE
280
     0
  9
$LWDISPLAY
290
     0
  9
$INSUNITS
 70
     0
  9
$HYPERLINKBASE
  1

  9
$STYLESHEET
  1

  9
$XEDIT
290
     1
  9
$CEPSNTYPE
380
     0
  9
$PSTYLEMODE
290
     1
  9
$FINGERPRINTGUID
  2

  9
$VERSIONGUID
  2

  9
$EXTNAMES
290
     1
  9
$PSVPSCALE
 40
0.0
  0
ENDSEC
  0
SECTION
  2
CLASSES
  0
CLASS
  1
LWPOLYLINE
  2
AcDbPolyline
  3
AutoCAD 2000
 90
        0
280
     0
281
     1
  0
CLASS
  1
IMAGE
  2
AcDbRasterImage
  3
ISM
 90
      127
280
     0
281
     1
  0
CLASS
  1
OLE2FRAME
  2
AcDbOle2Frame
  3
AutoCAD 2000
 90
        0
280
     0
281
     1
  0
CLASS
  1
HATCH
  2
AcDbHatch
  3
AutoCAD 2000
 90
        0
280
     0
281
     1
  0
CLASS
  1
DICTIONARYVAR
  2
AcDbDictionaryVar
  3
AutoCAD 2000
 90
        0
280
     0
281
     0
  0
CLASS
  1
RASTERVARIABLES
  2
AcDbRasterVariables
  3
ISM
 90
        0
280
     0
281
     0
  0
CLASS
  1
IMAGEDEF
  2
AcDbRasterImageDef
  3
ISM
 90
        0
280
     0
281
     0
  0
CLASS
  1
IMAGEDEF_REACTOR
  2
AcDbRasterImageDefReactor
  3
ISM
 90
        1
280
     0
281
     0
  0
CLASS
  1
IDBUFFER
  2
AcDbIdBuffer
  3
AutoCAD 2000
 90
        0
280
     0
281
     0
  0
CLASS
  1
SPATIAL_FILTER
  2
AcDbSpatialFilter
  3
AutoCAD 2000
 90
        0
280
     0
281
     0
  0
CLASS
  1
XRECORD
  2
AcDbXrecord
  3
AutoCAD 2000
 90
        0
280
     0
281
     0
  0
CLASS
  1
SORTENTSTABLE
  2
AcDbSortentsTable
  3
AutoCAD 2000
 90
        0
280
     0
281
     0
  0
CLASS
  1
LAYER_INDEX
  2
AcDbLayerIndex
  3
AutoCAD 2000
 90
        0
280
     0
281
     0
  0
CLASS
  1
SPATIAL_INDEX
  2
AcDbSpatialIndex
  3
AutoCAD 2000
 90
        0
280
     0
281
     0
  0
CLASS
  1
OBJECT_PTR
  2
CAseDLPNTableRecord
  3
"ASE-LPNTableRecord"
 90
        1
280
     0
281
     0
  0
CLASS
  1
LAYOUT
  2
AcDbLayout
  3
AutoCAD 2000
 90
        0
280
     0
281
     0
  0
CLASS
  1
PLOTSETTINGS
  2
AcDbPlotSettings
  3
AutoCAD 2000
 90
        0
280
     0
281
     0
  0
CLASS
  1
ACDBDICTIONARYWDFLT
  2
AcDbDictionaryWithDefault
  3
AutoCAD 2000
 90
        0
280
     0
281
     0
  0
CLASS
  1
ACDBPLACEHOLDER
  2
AcDbPlaceHolder
  3
AutoCAD 2000
 90
        0
280
     0
281
     0
  0
CLASS
  1
VBA_PROJECT
  2
AcDbVbaProject
  3
acadvba
 90
        0
280
     0
281
     0
  0
CLASS
  1
WIPEOUT
  2
AcDbWipeout
  3
WipeOut|AutoCAD Express Tool|expresstools@autodesk.com
 90
      127
280
     0
281
     1
  0
CLASS
  1
WIPEOUTVARIABLES
  2
AcDbWipeoutVariables
  3
WipeOut|AutoCAD Express Tool|expresstools@autodesk.com
 90
        0
280
     0
281
     0
  0
CLASS
  1
RTEXT
  2
RText
  3
RText|AutoCAD Express Tool|expresstools@autodesk.com
 90
        0
280
     0
281
     1
  0
CLASS
  1
ARCALIGNEDTEXT
  2
AcDbArcAlignedText
  3
ATEXT|AutoCAD Express Tool|expresstools@autodesk.com
 90
        0
280
     0
281
     1
  0
ENDSEC
  0
SECTION
  2
TABLES
  0
TABLE
  2
VPORT
  5
7
100
AcDbSymbolTable
 70
     1
  0
VPORT
  5
15
100
AcDbSymbolTableRecord
100
AcDbViewportTableRecord
  2
*ACTIVE
 70
     0
 10
0.0
 20
0.0
 11
1.0
 21
1.0
 12
6.591288
 22
4.579184
 13
0.0
 23
0.0
 14
1.0
 24
1.0
 15
0.0
 25
0.0
 16
0.0
 26
0.0
 36
1.0
 17
0.0
 27
0.0
 37
0.0
 40
9.158369
 41
0.688564
 42
50.0
 43
0.0
 44
0.0
 50
0.0
 51
0.0
 71
     0
 72
   100
 73
     1
 74
     1
 75
     0
 76
     0
 77
     0
 78
     0
281
     0
 65
     0
110
0.0
120
0.0
130
0.0
111
1.0
121
0.0
131
0.0
112
0.0
122
1.0
132
0.0
345
0
346
0
 79
     0
146
0.0
  0
ENDTAB
  0
TABLE
  2
LTYPE
  5
4
100
AcDbSymbolTable
 70
     3
  0
LTYPE
  5
11
100
AcDbSymbolTableRecord
100
AcDbLinetypeTableRecord
  2
ByBlock
 70
    64
  3

 72
    65
 73
     0
 40
0.0
  0
LTYPE
  5
12
100
AcDbSymbolTableRecord
100
AcDbLinetypeTableRecord
  2
ByLayer
 70
    64
  3

 72
    65
 73
     0
 40
0.0
  0
LTYPE
  5
13
100
AcDbSymbolTableRecord
100
AcDbLinetypeTableRecord
  2
Continuous
 70
    64
  3
Solid line
 72
    65
 73
     0
 40
0.0
  0
ENDTAB
  0
TABLE
  2
LAYER
  5
2
100
AcDbSymbolTable
 70
     1
  0
LAYER
  5
14
100
AcDbSymbolTableRecord
100
AcDbLayerTableRecord
  2
0
 70
     0
 62
     7
  6
Continuous
290
     1
370
    -3
390
1D
  0
ENDTAB
  0
TABLE
  2
STYLE
  5
3
100
AcDbSymbolTable
 70
     1
  0
STYLE
  5
17
100
AcDbSymbolTableRecord
100
AcDbTextStyleTableRecord
  2
Standard
 70
     0
 40
0.0
 41
1.0
 50
0.0
 71
     0
 42
0.0
  3
FG教科書体NT-M
  4

1001
ACAD
1000
FG教科書体NT-M
1071
        0
  0
ENDTAB
  0
TABLE
  2
VIEW
  5
5
100
AcDbSymbolTable
 70
     0
  0
ENDTAB
  0
TABLE
  2
UCS
  5
6
100
AcDbSymbolTable
 70
     0
  0
ENDTAB
  0
TABLE
  2
APPID
  5
8
100
AcDbSymbolTable
 70
     2
  0
APPID
  5
16
100
AcDbSymbolTableRecord
100
AcDbRegAppTableRecord
  2
ACAD
 70
     0
  0
APPID
  5
26
100
AcDbSymbolTableRecord
100
AcDbRegAppTableRecord
  2
TOPsolid_Design
 70
     0
  0
ENDTAB
  0
TABLE
  2
DIMSTYLE
  5
9
100
AcDbSymbolTable
 70
     1
100
AcDbDimStyleTable
 71
     0
  0
DIMSTYLE
105
18
100
AcDbSymbolTableRecord
100
AcDbDimStyleTableRecord
  2
Standard
 70
     0
  3

  4

 40
1.0
 41
1.40208
 42
1.40208
 43
0.38
 44
1.05156
 45
0.0
 46
0.0
 47
0.0
 48
0.0
 71
     0
 72
     0
 73
     0
 74
     0
 75
     0
 76
     0
 77
     1
 78
     0
 79
     0
140
3.5052
141
0.09
142
0.0
143
25.4
144
1.0
145
0.0
146
0.5
147
1.7526
148
0.0
170
     0
171
     2
172
     0
173
     0
174
     0
175
     0
176
     7
177
     7
178
     7
179
     0
271
     2
272
     4
273
     2
274
     2
275
     0
276
     0
277
     2
278
    46
279
     0
280
     0
281
     0
282
     0
283
     1
284
     0
285
     0
286
     0
288
     0
289
     3
340
17
341
0
342
0
343
0
344
0
371
    -2
372
    -2
  0
ENDTAB
  0
TABLE
  2
BLOCK_RECORD
  5
1
100
AcDbSymbolTable
 70
     0
  0
BLOCK_RECORD
  5
A
100
AcDbSymbolTableRecord
100
AcDbBlockTableRecord
  2
*MODEL_SPACE
340
20
  0
BLOCK_RECORD
  5
B
100
AcDbSymbolTableRecord
100
AcDbBlockTableRecord
  2
*PAPER_SPACE
340
21
  0
ENDTAB
  0
ENDSEC
  0
SECTION
  2
BLOCKS
  0
BLOCK
  5
D
100
AcDbEntity
  8
0
390
0
100
AcDbBlockBegin
  2
*MODEL_SPACE
 70
     0
 10
0.0
 20
0.0
 30
0.0
  3
*MODEL_SPACE
  1

  0
ENDBLK
  5
E
100
AcDbEntity
  8
0
390
0
100
AcDbBlockEnd
  0
BLOCK
  5
F
100
AcDbEntity
 67
     1
  8
0
390
0
100
AcDbBlockBegin
  2
*PAPER_SPACE
 70
     0
 10
0.0
 20
0.0
 30
0.0
  3
*PAPER_SPACE
  1

  0
ENDBLK
  5
10
100
AcDbEntity
 67
     1
  8
0
390
0
100
AcDbBlockEnd
  0
ENDSEC
  0
SECTION
  2
ENTITIES
  0
LINE
  5
27
100
AcDbEntity
  8
0
390
0
  6
Continuous
 62
     7
100
AcDbLine
 10
106.500122
 20
-151.599833
 30
0.0
 11
116.000122
 21
-151.599833
 31
0.0
  0
LINE
  5
28
100
AcDbEntity
  8
0
390
0
  6
Continuous
 62
     7
100
AcDbLine
 10
116.000122
 20
-151.599833
 30
0.0
 11
125.500122
 21
-151.599833
 31
0.0
  0
LINE
  5
29
100
AcDbEntity
  8
0
390
0
  6
Continuous
 62
     7
100
AcDbLine
 10
106.500122
 20
-151.599833
 30
0.0
 11
116.000122
 21
-151.599833
 31
0.0
  0
POLYLINE
  5
2A
100
AcDbEntity
  8
0
390
0
  6
Continuous
 62
     7
100
AcDb2dPolyline
 66
     1
 10
0.0
 20
0.0
 30
0.0
 40
0.1
 41
0.1
  0
VERTEX
  5
2B
100
AcDbEntity
  8
0
390
0
 62
     7
100
AcDbVertex
100
AcDb2dVertex
 10
109.937945
 20
-150.084605
 30
0.0
 42
-0.101013
  0
VERTEX
  5
2C
100
AcDbEntity
  8
0
390
0
 62
     7
100
AcDbVertex
100
AcDb2dVertex
 10
107.412542
 20
-150.994866
 30
0.0
  0
VERTEX
  5
2D
100
AcDbEntity
  8
0
390
0
 62
     7
100
AcDbVertex
100
AcDb2dVertex
 10
106.901062
 20
-151.022458
 30
0.0
  0
VERTEX
  5
2E
100
AcDbEntity
  8
0
390
0
 62
     7
100
AcDbVertex
100
AcDb2dVertex
 10
106.394944
 20
-150.993865
 30
0.0
 42
-0.088281
  0
VERTEX
  5
2F
100
AcDbEntity
  8
0
390
0
 62
     7
100
AcDbVertex
100
AcDb2dVertex
 10
104.390543
 20
-150.362099
 30
0.0
  0
SEQEND
  5
30
100
AcDbEntity
  8
0
390
0
  0
LINE
  5
31
100
AcDbEntity
  8
0
390
0
  6
Continuous
 62
     7
100
AcDbLine
 10
104.390543
 20
-150.362099
 30
0.0
 11
103.875766
 21
-150.084605
 31
0.0
  0
LINE
  5
32
100
AcDbEntity
  8
0
390
0
  6
Continuous
 62
     7
100
AcDbLine
 10
116.000122
 20
-151.022462
 30
0.0
 11
115.47286
 21
-151.014751
 31
0.0
  0
ARC
  5
33
100
AcDbEntity
  8
0
390
0
  6
Continuous
 62
     7
100
AcDbCircle
 10
116.150651
 20
-130.467186
 30
0.0
 40
20.558741
210
0.0
220
0.0
230
1.0
100
AcDbArc
 50
255.409889
 51
268.110703
  0
LINE
  5
34
100
AcDbEntity
  8
0
390
0
  6
Continuous
 62
     7
100
AcDbLine
 10
110.971856
 20
-150.362962
 30
0.0
 11
109.937945
 21
-150.084605
 31
0.0
  0
LINE
  5
35
100
AcDbEntity
  8
0
390
0
  6
Continuous
 62
     7
100
AcDbLine
 10
122.062298
 20
-150.084605
 30
0.0
 11
121.036537
 21
-150.360934
 31
0.0
  0
ARC
  5
36
100
AcDbEntity
  8
0
390
0
  6
Continuous
 62
     7
100
AcDbCircle
 10
115.819038
 20
-130.141155
 30
0.0
 40
20.882092
210
0.0
220
0.0
230
1.0
100
AcDbArc
 50
270.496858
 51
284.468942
  0
POLYLINE
  5
37
100
AcDbEntity
  8
0
390
0
  6
Continuous
 62
     7
100
AcDb2dPolyline
 66
     1
 10
0.0
 20
0.0
 30
0.0
 40
0.1
 41
0.1
  0
VERTEX
  5
38
100
AcDbEntity
  8
0
390
0
 62
     7
100
AcDbVertex
100
AcDb2dVertex
 10
128.124477
 20
-150.084605
 30
0.0
 42
-0.101144
  0
VERTEX
  5
39
100
AcDbEntity
  8
0
390
0
 62
     7
100
AcDbVertex
100
AcDb2dVertex
 10
125.596355
 20
-150.994863
 30
0.0
  0
VERTEX
  5
3A
100
AcDbEntity
  8
0
390
0
 62
     7
100
AcDbVertex
100
AcDb2dVertex
 10
125.087595
 20
-151.022458
 30
0.0
  0
VERTEX
  5
3B
100
AcDbEntity
  8
0
390
0
 62
     7
100
AcDbVertex
100
AcDb2dVertex
 10
124.578789
 20
-150.993862
 30
0.0
 42
-0.106216
  0
VERTEX
  5
3C
100
AcDbEntity
  8
0
390
0
 62
     7
100
AcDbVertex
100
AcDb2dVertex
 10
122.062299
 20
-150.084605
 30
0.0
  0
SEQEND
  5
3D
100
AcDbEntity
  8
0
390
0
  0
LINE
  5
3E
100
AcDbEntity
  8
0
390
0
  6
Continuous
 62
     7
100
AcDbLine
 10
116.000122
 20
-151.599833
 30
0.0
 11
125.500122
 21
-151.599833
 31
0.0
  0
LINE
  5
3F
100
AcDbEntity
  8
0
390
0
  6
Continuous
 62
     7
100
AcDbLine
 10
109.937944
 20
-141.599833
 30
0.0
 11
122.062299
 21
-141.599833
 31
0.0
  0
LINE
  5
40
100
AcDbEntity
  8
0
390
0
  6
Continuous
 62
     7
100
AcDbLine
 10
122.062299
 20
-141.599833
 30
0.0
 11
128.124477
 21
-141.599833
 31
0.0
  0
LINE
  5
41
100
AcDbEntity
  8
0
390
0
  6
Continuous
 62
     7
100
AcDbLine
 10
103.875766
 20
-141.599833
 30
0.0
 11
109.937944
 21
-141.599833
 31
0.0
  0
LINE
  5
42
100
AcDbEntity
  8
0
390
0
  6
Continuous
 62
     7
100
AcDbLine
 10
109.937944
 20
-141.599833
 30
0.0
 11
109.937944
 21
-150.084605
 31
0.0
  0
LINE
  5
43
100
AcDbEntity
  8
0
390
0
  6
Continuous
 62
     7
100
AcDbLine
 10
103.875766
 20
-141.599833
 30
0.0
 11
109.937944
 21
-141.599833
 31
0.0
  0
LINE
  5
44
100
AcDbEntity
  8
0
390
0
  6
Continuous
 62
     7
100
AcDbLine
 10
103.875766
 20
-150.084605
 30
0.0
 11
103.875766
 21
-141.599833
 31
0.0
  0
LINE
  5
45
100
AcDbEntity
  8
0
390
0
  6
Continuous
 62
     7
100
AcDbLine
 10
109.937944
 20
-150.084605
 30
0.0
 11
109.420732
 21
-150.363126
 31
0.0
  0
POLYLINE
  5
46
100
AcDbEntity
  8
0
390
0
  6
Continuous
 62
     7
100
AcDb2dPolyline
 66
     1
 10
0.0
 20
0.0
 30
0.0
 40
0.1
 41
0.1
  0
VERTEX
  5
47
100
AcDbEntity
  8
0
390
0
 62
     7
100
AcDbVertex
100
AcDb2dVertex
 10
109.420732
 20
-150.363126
 30
0.0
 42
-0.089141
  0
VERTEX
  5
48
100
AcDbEntity
  8
0
390
0
 62
     7
100
AcDbVertex
100
AcDb2dVertex
 10
107.406209
 20
-150.994837
 30
0.0
  0
VERTEX
  5
49
100
AcDbEntity
  8
0
390
0
 62
     7
100
AcDbVertex
100
AcDb2dVertex
 10
106.901062
 20
-151.022458
 30
0.0
  0
VERTEX
  5
4A
100
AcDbEntity
  8
0
390
0
 62
     7
100
AcDbVertex
100
AcDb2dVertex
 10
106.398754
 20
-150.993891
 30
0.0
 42
-0.08874
  0
VERTEX
  5
4B
100
AcDbEntity
  8
0
390
0
 62
     7
100
AcDbVertex
100
AcDb2dVertex
 10
104.390511
 20
-150.361908
 30
0.0
  0
SEQEND
  5
4C
100
AcDbEntity
  8
0
390
0
  0
LINE
  5
4D
100
AcDbEntity
  8
0
390
0
  6
Continuous
 62
     7
100
AcDbLine
 10
104.390511
 20
-150.361908
 30
0.0
 11
103.875766
 21
-150.084605
 31
0.0
  0
LINE
  5
4E
100
AcDbEntity
  8
0
390
0
  6
Continuous
 62
     7
100
AcDbLine
 10
103.875766
 20
-141.599833
 30
0.0
 11
103.875766
 21
-150.084605
 31
0.0
  0
LINE
  5
4F
100
AcDbEntity
  8
0
390
0
  6
Continuous
 62
     7
100
AcDbLine
 10
128.124477
 20
-150.084605
 30
0.0
 11
128.124477
 21
-141.599833
 31
0.0
  0
LINE
  5
50
100
AcDbEntity
  8
0
390
0
  6
Continuous
 62
     7
100
AcDbLine
 10
127.609732
 20
-150.361908
 30
0.0
 11
128.124477
 21
-150.084605
 31
0.0
  0
LINE
  5
51
100
AcDbEntity
  8
0
390
0
  6
Continuous
 62
     7
100
AcDbLine
 10
128.124477
 20
-141.599833
 30
0.0
 11
128.124477
 21
-150.084605
 31
0.0
  0
LINE
  5
52
100
AcDbEntity
  8
0
390
0
  6
Continuous
 62
     7
100
AcDbLine
 10
122.062299
 20
-141.599833
 30
0.0
 11
128.124477
 21
-141.599833
 31
0.0
  0
LINE
  5
53
100
AcDbEntity
  8
0
390
0
  6
Continuous
 62
     7
100
AcDbLine
 10
122.062299
 20
-150.084605
 30
0.0
 11
122.062299
 21
-141.599833
 31
0.0
  0
POLYLINE
  5
54
100
AcDbEntity
  8
0
390
0
  6
Continuous
 62
     7
100
AcDb2dPolyline
 66
     1
 10
0.0
 20
0.0
 30
0.0
 40
0.1
 41
0.1
  0
VERTEX
  5
55
100
AcDbEntity
  8
0
390
0
 62
     7
100
AcDbVertex
100
AcDb2dVertex
 10
128.124477
 20
-150.084605
 30
0.0
 42
-0.101406
  0
VERTEX
  5
56
100
AcDbEntity
  8
0
390
0
 62
     7
100
AcDbVertex
100
AcDb2dVertex
 10
125.592742
 20
-150.994837
 30
0.0
  0
VERTEX
  5
57
100
AcDbEntity
  8
0
390
0
 62
     7
100
AcDbVertex
100
AcDb2dVertex
 10
125.087595
 20
-151.022458
 30
0.0
  0
VERTEX
  5
58
100
AcDbEntity
  8
0
390
0
 62
     7
100
AcDbVertex
100
AcDb2dVertex
 10
124.585288
 20
-150.993891
 30
0.0
 42
-0.106876
  0
VERTEX
  5
59
100
AcDbEntity
  8
0
390
0
 62
     7
100
AcDbVertex
100
AcDb2dVertex
 10
122.062299
 20
-150.084605
 30
0.0
  0
SEQEND
  5
5A
100
AcDbEntity
  8
0
390
0
  0
LINE
  5
5B
100
AcDbEntity
  8
0
390
0
  6
Continuous
 62
     7
100
AcDbLine
 10
122.062299
 20
-141.599833
 30
0.0
 11
122.062299
 21
-150.084605
 31
0.0
  0
LINE
  5
5C
100
AcDbEntity
  8
0
390
0
  6
Continuous
 62
     7
100
AcDbLine
 10
109.937944
 20
-141.599833
 30
0.0
 11
122.062299
 21
-141.599833
 31
0.0
  0
LINE
  5
5D
100
AcDbEntity
  8
0
390
0
  6
Continuous
 62
     7
100
AcDbLine
 10
109.937944
 20
-150.084605
 30
0.0
 11
109.937944
 21
-141.599833
 31
0.0
  0
LINE
  5
5E
100
AcDbEntity
  8
0
390
0
  6
Continuous
 62
     7
100
AcDbLine
 10
122.062299
 20
-150.084605
 30
0.0
 11
121.036511
 21
-150.360976
 31
0.0
  0
ARC
  5
5F
100
AcDbEntity
  8
0
390
0
  6
Continuous
 62
     7
100
AcDbCircle
 10
115.808914
 20
-130.09039
 30
0.0
 40
20.93381
210
0.0
220
0.0
230
1.0
100
AcDbArc
 50
270.795742
 51
284.460961
  0
LINE
  5
60
100
AcDbEntity
  8
0
390
0
  6
Continuous
 62
     7
100
AcDbLine
 10
116.09964
 20
-151.022182
 30
0.0
 11
116.001133
 21
-151.022462
 31
0.0
  0
LINE
  5
61
100
AcDbEntity
  8
0
390
0
  6
Continuous
 62
     7
100
AcDbLine
 10
116.001133
 20
-151.022462
 30
0.0
 11
115.900633
 21
-151.022186
 31
0.0
  0
LINE
  5
62
100
AcDbEntity
  8
0
390
0
  6
Continuous
 62
     7
100
AcDbLine
 10
115.900633
 20
-151.022186
 30
0.0
 11
115.47394
 21
-151.014755
 31
0.0
  0
ARC
  5
63
100
AcDbEntity
  8
0
390
0
  6
Continuous
 62
     7
100
AcDbCircle
 10
116.232371
 20
-129.900311
 30
0.0
 40
21.128061
210
0.0
220
0.0
230
1.0
100
AcDbArc
 50
255.582791
 51
267.942819
  0
LINE
  5
64
100
AcDbEntity
  8
0
390
0
  6
Continuous
 62
     7
100
AcDbLine
 10
110.97189
 20
-150.363016
 30
0.0
 11
109.937944
 21
-150.084605
 31
0.0
  0
LINE
  5
65
100
AcDbEntity
  8
0
390
0
  6
Continuous
 62
     7
100
AcDbLine
 10
-125.499878
 20
-151.599833
 30
0.0
 11
-115.999878
 21
-151.599833
 31
0.0
  0
LINE
  5
66
100
AcDbEntity
  8
0
390
0
  6
Continuous
 62
     7
100
AcDbLine
 10
-115.999878
 20
-151.599833
 30
0.0
 11
-106.499878
 21
-151.599833
 31
0.0
  0
LINE
  5
67
100
AcDbEntity
  8
0
390
0
  6
Continuous
 62
     7
100
AcDbLine
 10
-125.499878
 20
-151.599833
 30
0.0
 11
-115.999878
 21
-151.599833
 31
0.0
  0
LINE
  5
68
100
AcDbEntity
  8
0
390
0
  6
Continuous
 62
     7
100
AcDbLine
 10
-109.937702
 20
-150.084605
 30
0.0
 11
-110.963463
 21
-150.360934
 31
0.0
  0
ARC
  5
69
100
AcDbEntity
  8
0
390
0
  6
Continuous
 62
     7
100
AcDbCircle
 10
-116.180962
 20
-130.141155
 30
0.0
 40
20.882092
210
0.0
220
0.0
230
1.0
100
AcDbArc
 50
270.496858
 51
284.468942
  0
LINE
  5
6A
100
AcDbEntity
  8
0
390
0
  6
Continuous
 62
     7
100
AcDbLine
 10
-115.999878
 20
-151.599833
 30
0.0
 11
-106.499878
 21
-151.599833
 31
0.0
  0
LINE
  5
6B
100
AcDbEntity
  8
0
390
0
  6
Continuous
 62
     7
100
AcDbLine
 10
-115.999878
 20
-151.022462
 30
0.0
 11
-116.52714
 21
-151.014751
 31
0.0
  0
ARC
  5
6C
100
AcDbEntity
  8
0
390
0
  6
Continuous
 62
     7
100
AcDbCircle
 10
-115.849349
 20
-130.467186
 30
0.0
 40
20.558741
210
0.0
220
0.0
230
1.0
100
AcDbArc
 50
255.409889
 51
268.110703
  0
LINE
  5
6D
100
AcDbEntity
  8
0
390
0
  6
Continuous
 62
     7
100
AcDbLine
 10
-121.028144
 20
-150.362962
 30
0.0
 11
-122.062055
 21
-150.084605
 31
0.0
  0
POLYLINE
  5
6E
100
AcDbEntity
  8
0
390
0
  6
Continuous
 62
     7
100
AcDb2dPolyline
 66
     1
 10
0.0
 20
0.0
 30
0.0
 40
0.1
 41
0.1
  0
VERTEX
  5
6F
100
AcDbEntity
  8
0
390
0
 62
     7
100
AcDbVertex
100
AcDb2dVertex
 10
-122.062055
 20
-150.084605
 30
0.0
 42
-0.101013
  0
VERTEX
  5
70
100
AcDbEntity
  8
0
390
0
 62
     7
100
AcDbVertex
100
AcDb2dVertex
 10
-124.587458
 20
-150.994866
 30
0.0
  0
VERTEX
  5
71
100
AcDbEntity
  8
0
390
0
 62
     7
100
AcDbVertex
100
AcDb2dVertex
 10
-125.098938
 20
-151.022458
 30
0.0
  0
VERTEX
  5
72
100
AcDbEntity
  8
0
390
0
 62
     7
100
AcDbVertex
100
AcDb2dVertex
 10
-125.605056
 20
-150.993865
 30
0.0
 42
-0.088281
  0
VERTEX
  5
73
100
AcDbEntity
  8
0
390
0
 62
     7
100
AcDbVertex
100
AcDb2dVertex
 10
-127.609457
 20
-150.362099
 30
0.0
  0
SEQEND
  5
74
100
AcDbEntity
  8
0
390
0
  0
LINE
  5
75
100
AcDbEntity
  8
0
390
0
  6
Continuous
 62
     7
100
AcDbLine
 10
-127.609457
 20
-150.362099
 30
0.0
 11
-128.124234
 21
-150.084605
 31
0.0
  0
LINE
  5
76
100
AcDbEntity
  8
0
390
0
  6
Continuous
 62
     7
100
AcDbLine
 10
-128.124234
 20
-150.084605
 30
0.0
 11
-127.614664
 21
-150.359498
 31
0.0
  0
POLYLINE
  5
77
100
AcDbEntity
  8
0
390
0
  6
Continuous
 62
     7
100
AcDb2dPolyline
 66
     1
 10
0.0
 20
0.0
 30
0.0
 40
0.1
 41
0.1
  0
VERTEX
  5
78
100
AcDbEntity
  8
0
390
0
 62
     7
100
AcDbVertex
100
AcDb2dVertex
 10
-103.875523
 20
-150.084605
 30
0.0
 42
-0.101144
  0
VERTEX
  5
79
100
AcDbEntity
  8
0
390
0
 62
     7
100
AcDbVertex
100
AcDb2dVertex
 10
-106.403645
 20
-150.994863
 30
0.0
  0
VERTEX
  5
7A
100
AcDbEntity
  8
0
390
0
 62
     7
100
AcDbVertex
100
AcDb2dVertex
 10
-106.912405
 20
-151.022458
 30
0.0
  0
VERTEX
  5
7B
100
AcDbEntity
  8
0
390
0
 62
     7
100
AcDbVertex
100
AcDb2dVertex
 10
-107.421211
 20
-150.993862
 30
0.0
 42
-0.106216
  0
VERTEX
  5
7C
100
AcDbEntity
  8
0
390
0
 62
     7
100
AcDbVertex
100
AcDb2dVertex
 10
-109.937701
 20
-150.084605
 30
0.0
  0
SEQEND
  5
7D
100
AcDbEntity
  8
0
390
0
  0
LINE
  5
7E
100
AcDbEntity
  8
0
390
0
  6
Continuous
 62
     7
100
AcDbLine
 10
-122.062056
 20
-141.599833
 30
0.0
 11
-109.937701
 21
-141.599833
 31
0.0
  0
LINE
  5
7F
100
AcDbEntity
  8
0
390
0
  6
Continuous
 62
     7
100
AcDbLine
 10
-109.937701
 20
-141.599833
 30
0.0
 11
-103.875523
 21
-141.599833
 31
0.0
  0
LINE
  5
80
100
AcDbEntity
  8
0
390
0
  6
Continuous
 62
     7
100
AcDbLine
 10
-128.124234
 20
-141.599833
 30
0.0
 11
-122.062056
 21
-141.599833
 31
0.0
  0
LINE
  5
81
100
AcDbEntity
  8
0
390
0
  6
Continuous
 62
     7
100
AcDbLine
 10
-128.124234
 20
-141.599833
 30
0.0
 11
-122.062056
 21
-141.599833
 31
0.0
  0
LINE
  5
82
100
AcDbEntity
  8
0
390
0
  6
Continuous
 62
     7
100
AcDbLine
 10
-122.062056
 20
-141.599833
 30
0.0
 11
-122.062056
 21
-150.084605
 31
0.0
  0
LINE
  5
83
100
AcDbEntity
  8
0
390
0
  6
Continuous
 62
     7
100
AcDbLine
 10
-122.062056
 20
-150.084605
 30
0.0
 11
-122.579268
 21
-150.363126
 31
0.0
  0
POLYLINE
  5
84
100
AcDbEntity
  8
0
390
0
  6
Continuous
 62
     7
100
AcDb2dPolyline
 66
     1
 10
0.0
 20
0.0
 30
0.0
 40
0.1
 41
0.1
  0
VERTEX
  5
85
100
AcDbEntity
  8
0
390
0
 62
     7
100
AcDbVertex
100
AcDb2dVertex
 10
-122.579268
 20
-150.363126
 30
0.0
 42
-0.089141
  0
VERTEX
  5
86
100
AcDbEntity
  8
0
390
0
 62
     7
100
AcDbVertex
100
AcDb2dVertex
 10
-124.593791
 20
-150.994837
 30
0.0
  0
VERTEX
  5
87
100
AcDbEntity
  8
0
390
0
 62
     7
100
AcDbVertex
100
AcDb2dVertex
 10
-125.098938
 20
-151.022458
 30
0.0
  0
VERTEX
  5
88
100
AcDbEntity
  8
0
390
0
 62
     7
100
AcDbVertex
100
AcDb2dVertex
 10
-125.601246
 20
-150.993891
 30
0.0
 42
-0.08874
  0
VERTEX
  5
89
100
AcDbEntity
  8
0
390
0
 62
     7
100
AcDbVertex
100
AcDb2dVertex
 10
-127.609489
 20
-150.361908
 30
0.0
  0
SEQEND
  5
8A
100
AcDbEntity
  8
0
390
0
  0
LINE
  5
8B
100
AcDbEntity
  8
0
390
0
  6
Continuous
 62
     7
100
AcDbLine
 10
-127.609489
 20
-150.361908
 30
0.0
 11
-128.124234
 21
-150.084605
 31
0.0
  0
LINE
  5
8C
100
AcDbEntity
  8
0
390
0
  6
Continuous
 62
     7
100
AcDbLine
 10
-128.124234
 20
-150.084605
 30
0.0
 11
-128.124234
 21
-141.599833
 31
0.0
  0
LINE
  5
8D
100
AcDbEntity
  8
0
390
0
  6
Continuous
 62
     7
100
AcDbLine
 10
-128.124234
 20
-141.599833
 30
0.0
 11
-128.124234
 21
-150.084605
 31
0.0
  0
LINE
  5
8E
100
AcDbEntity
  8
0
390
0
  6
Continuous
 62
     7
100
AcDbLine
 10
-104.390268
 20
-150.361908
 30
0.0
 11
-103.875523
 21
-150.084605
 31
0.0
  0
LINE
  5
8F
100
AcDbEntity
  8
0
390
0
  6
Continuous
 62
     7
100
AcDbLine
 10
-103.875523
 20
-150.084605
 30
0.0
 11
-103.875523
 21
-141.599833
 31
0.0
  0
LINE
  5
90
100
AcDbEntity
  8
0
390
0
  6
Continuous
 62
     7
100
AcDbLine
 10
-109.937701
 20
-141.599833
 30
0.0
 11
-103.875523
 21
-141.599833
 31
0.0
  0
LINE
  5
91
100
AcDbEntity
  8
0
390
0
  6
Continuous
 62
     7
100
AcDbLine
 10
-103.875523
 20
-141.599833
 30
0.0
 11
-103.875523
 21
-150.084605
 31
0.0
  0
POLYLINE
  5
92
100
AcDbEntity
  8
0
390
0
  6
Continuous
 62
     7
100
AcDb2dPolyline
 66
     1
 10
0.0
 20
0.0
 30
0.0
 40
0.1
 41
0.1
  0
VERTEX
  5
93
100
AcDbEntity
  8
0
390
0
 62
     7
100
AcDbVertex
100
AcDb2dVertex
 10
-103.875523
 20
-150.084605
 30
0.0
 42
-0.101406
  0
VERTEX
  5
94
100
AcDbEntity
  8
0
390
0
 62
     7
100
AcDbVertex
100
AcDb2dVertex
 10
-106.407258
 20
-150.994837
 30
0.0
  0
VERTEX
  5
95
100
AcDbEntity
  8
0
390
0
 62
     7
100
AcDbVertex
100
AcDb2dVertex
 10
-106.912405
 20
-151.022458
 30
0.0
  0
VERTEX
  5
96
100
AcDbEntity
  8
0
390
0
 62
     7
100
AcDbVertex
100
AcDb2dVertex
 10
-107.414712
 20
-150.993891
 30
0.0
 42
-0.106876
  0
VERTEX
  5
97
100
AcDbEntity
  8
0
390
0
 62
     7
100
AcDbVertex
100
AcDb2dVertex
 10
-109.937701
 20
-150.084605
 30
0.0
  0
SEQEND
  5
98
100
AcDbEntity
  8
0
390
0
  0
LINE
  5
99
100
AcDbEntity
  8
0
390
0
  6
Continuous
 62
     7
100
AcDbLine
 10
-109.937701
 20
-150.084605
 30
0.0
 11
-109.937701
 21
-141.599833
 31
0.0
  0
LINE
  5
9A
100
AcDbEntity
  8
0
390
0
  6
Continuous
 62
     7
100
AcDbLine
 10
-122.062056
 20
-141.599833
 30
0.0
 11
-109.937701
 21
-141.599833
 31
0.0
  0
LINE
  5
9B
100
AcDbEntity
  8
0
390
0
  6
Continuous
 62
     7
100
AcDbLine
 10
-109.937701
 20
-141.599833
 30
0.0
 11
-109.937701
 21
-150.084605
 31
0.0
  0
LINE
  5
9C
100
AcDbEntity
  8
0
390
0
  6
Continuous
 62
     7
100
AcDbLine
 10
-109.937701
 20
-150.084605
 30
0.0
 11
-110.963489
 21
-150.360976
 31
0.0
  0
ARC
  5
9D
100
AcDbEntity
  8
0
390
0
  6
Continuous
 62
     7
100
AcDbCircle
 10
-116.191086
 20
-130.09039
 30
0.0
 40
20.93381
210
0.0
220
0.0
230
1.0
100
AcDbArc
 50
270.795742
 51
284.460961
  0
LINE
  5
9E
100
AcDbEntity
  8
0
390
0
  6
Continuous
 62
     7
100
AcDbLine
 10
-115.90036
 20
-151.022182
 30
0.0
 11
-115.998867
 21
-151.022462
 31
0.0
  0
LINE
  5
9F
100
AcDbEntity
  8
0
390
0
  6
Continuous
 62
     7
100
AcDbLine
 10
-115.998867
 20
-151.022462
 30
0.0
 11
-116.099367
 21
-151.022186
 31
0.0
  0
LINE
  5
A0
100
AcDbEntity
  8
0
390
0
  6
Continuous
 62
     7
100
AcDbLine
 10
-116.099367
 20
-151.022186
 30
0.0
 11
-116.52606
 21
-151.014755
 31
0.0
  0
ARC
  5
A1
100
AcDbEntity
  8
0
390
0
  6
Continuous
 62
     7
100
AcDbCircle
 10
-115.767629
 20
-129.900311
 30
0.0
 40
21.128061
210
0.0
220
0.0
230
1.0
100
AcDbArc
 50
255.582791
 51
267.942819
  0
LINE
  5
A2
100
AcDbEntity
  8
0
390
0
  6
Continuous
 62
     7
100
AcDbLine
 10
-121.02811
 20
-150.363016
 30
0.0
 11
-122.062056
 21
-150.084605
 31
0.0
  0
LINE
  5
A3
100
AcDbEntity
  8
0
390
0
  6
Continuous
 62
     7
100
AcDbLine
 10
-122.062056
 20
-150.084605
 30
0.0
 11
-122.062056
 21
-141.599833
 31
0.0
  0
LINE
  5
A4
100
AcDbEntity
  8
0
390
0
  6
Continuous
 62
     7
100
AcDbLine
 10
122.250122
 20
-171.599833
 30
0.0
 11
109.750122
 21
-171.599833
 31
0.0
  0
LINE
  5
A5
100
AcDbEntity
  8
0
390
0
  6
Continuous
 62
     7
100
AcDbLine
 10
122.250122
 20
-106.599833
 30
0.0
 11
109.750122
 21
-106.599833
 31
0.0
  0
LINE
  5
A6
100
AcDbEntity
  8
0
390
0
  6
Continuous
 62
     7
100
AcDbLine
 10
122.250122
 20
-106.599833
 30
0.0
 11
109.750122
 21
-106.599833
 31
0.0
  0
LINE
  5
A7
100
AcDbEntity
  8
0
390
0
  6
Continuous
 62
     7
100
AcDbLine
 10
109.750122
 20
-171.599833
 30
0.0
 11
122.250122
 21
-171.599833
 31
0.0
  0
LINE
  5
A8
100
AcDbEntity
  8
0
390
0
  6
Continuous
 62
     7
100
AcDbLine
 10
-109.749878
 20
-171.599833
 30
0.0
 11
-122.249878
 21
-171.599833
 31
0.0
  0
LINE
  5
A9
100
AcDbEntity
  8
0
390
0
  6
Continuous
 62
     7
100
AcDbLine
 10
-109.749878
 20
-106.599833
 30
0.0
 11
-122.249878
 21
-106.599833
 31
0.0
  0
LINE
  5
AA
100
AcDbEntity
  8
0
390
0
  6
Continuous
 62
     7
100
AcDbLine
 10
-122.249878
 20
-171.599833
 30
0.0
 11
-109.749878
 21
-171.599833
 31
0.0
  0
LINE
  5
AB
100
AcDbEntity
  8
0
390
0
  6
Continuous
 62
     7
100
AcDbLine
 10
-122.249878
 20
-106.599833
 30
0.0
 11
-109.749878
 21
-106.599833
 31
0.0
  0
LINE
  5
AC
100
AcDbEntity
  8
0
390
0
  6
Continuous
 62
     7
100
AcDbLine
 10
110.400122
 20
-82.099833
 30
0.0
 11
110.499209
 21
-82.099833
 31
0.0
  0
LINE
  5
AD
100
AcDbEntity
  8
0
390
0
  6
Continuous
 62
     7
100
AcDbLine
 10
-110.498788
 20
-82.099833
 30
0.0
 11
-110.399878
 21
-82.099833
 31
0.0
  0
LINE
  5
AE
100
AcDbEntity
  8
0
390
0
  6
Continuous
 62
     7
100
AcDbLine
 10
108.400122
 20
-82.099833
 30
0.0
 11
108.400122
 21
-23.6227
 31
0.0
  0
POLYLINE
  5
AF
100
AcDbEntity
  8
0
390
0
  6
Continuous
 62
     7
100
AcDb2dPolyline
 66
     1
 10
0.0
 20
0.0
 30
0.0
 40
0.1
 41
0.1
  0
VERTEX
  5
B0
100
AcDbEntity
  8
0
390
0
 62
     7
100
AcDbVertex
100
AcDb2dVertex
 10
108.400122
 20
-23.6227
 30
0.0
  0
VERTEX
  5
B1
100
AcDbEntity
  8
0
390
0
 62
     7
100
AcDbVertex
100
AcDb2dVertex
 10
108.400122
 20
0.000167
 30
0.0
 42
1.0
  0
VERTEX
  5
B2
100
AcDbEntity
  8
0
390
0
 62
     7
100
AcDbVertex
100
AcDb2dVertex
 10
-108.399878
 20
0.000167
 30
0.0
  0
VERTEX
  5
B3
100
AcDbEntity
  8
0
390
0
 62
     7
100
AcDbVertex
100
AcDb2dVertex
 10
-108.399878
 20
-82.099833
 30
0.0
  0
SEQEND
  5
B4
100
AcDbEntity
  8
0
390
0
  0
LINE
  5
B5
100
AcDbEntity
  8
0
390
0
  6
Continuous
 62
     7
100
AcDbLine
 10
123.800122
 20
-82.099833
 30
0.0
 11
110.634569
 21
-82.099833
 31
0.0
  0
LINE
  5
B6
100
AcDbEntity
  8
0
390
0
  6
Continuous
 62
     7
100
AcDbLine
 10
110.634569
 20
-82.099833
 30
0.0
 11
110.600122
 21
-82.099833
 31
0.0
  0
LINE
  5
B7
100
AcDbEntity
  8
0
390
0
  6
Continuous
 62
     7
100
AcDbLine
 10
-110.599878
 20
-82.099833
 30
0.0
 11
-123.799878
 21
-82.099833
 31
0.0
  0
POLYLINE
  5
B8
100
AcDbEntity
  8
0
390
0
  6
Continuous
 62
     7
100
AcDb2dPolyline
 66
     1
 10
0.0
 20
0.0
 30
0.0
 40
0.1
 41
0.1
  0
VERTEX
  5
B9
100
AcDbEntity
  8
0
390
0
 62
     7
100
AcDbVertex
100
AcDb2dVertex
 10
110.600122
 20
-82.099833
 30
0.0
  0
VERTEX
  5
BA
100
AcDbEntity
  8
0
390
0
 62
     7
100
AcDbVertex
100
AcDb2dVertex
 10
110.600122
 20
0.000167
 30
0.0
 42
1.0
  0
VERTEX
  5
BB
100
AcDbEntity
  8
0
390
0
 62
     7
100
AcDbVertex
100
AcDb2dVertex
 10
-110.599878
 20
0.000167
 30
0.0
  0
VERTEX
  5
BC
100
AcDbEntity
  8
0
390
0
 62
     7
100
AcDbVertex
100
AcDb2dVertex
 10
-110.599878
 20
-82.099833
 30
0.0
  0
SEQEND
  5
BD
100
AcDbEntity
  8
0
390
0
  0
LINE
  5
BE
100
AcDbEntity
  8
0
390
0
  6
Continuous
 62
     7
100
AcDbLine
 10
-110.599878
 20
-82.099833
 30
0.0
 11
-108.399878
 21
-82.099833
 31
0.0
  0
LINE
  5
BF
100
AcDbEntity
  8
0
390
0
  6
Continuous
 62
     7
100
AcDbLine
 10
108.400122
 20
-23.6227
 30
0.0
 11
108.400122
 21
-82.099833
 31
0.0
  0
LINE
  5
C0
100
AcDbEntity
  8
0
390
0
  6
Continuous
 62
     7
100
AcDbLine
 10
108.400122
 20
-82.099833
 30
0.0
 11
110.600122
 21
-82.099833
 31
0.0
  0
LINE
  5
C1
100
AcDbEntity
  8
0
390
0
  6
Continuous
 62
     7
100
AcDbLine
 10
108.400122
 20
-82.099833
 30
0.0
 11
110.600122
 21
-82.099833
 31
0.0
  0
LINE
  5
C2
100
AcDbEntity
  8
0
390
0
  6
Continuous
 62
     7
100
AcDbLine
 10
110.600122
 20
-82.099833
 30
0.0
 11
110.600716
 21
-82.099833
 31
0.0
  0
LINE
  5
C3
100
AcDbEntity
  8
0
390
0
  6
Continuous
 62
     7
100
AcDbLine
 10
110.600716
 20
-82.099833
 30
0.0
 11
123.799765
 21
-82.099833
 31
0.0
  0
LINE
  5
C4
100
AcDbEntity
  8
0
390
0
  6
Continuous
 62
     7
100
AcDbLine
 10
-123.799531
 20
-82.099833
 30
0.0
 11
-110.599878
 21
-82.099833
 31
0.0
  0
LINE
  5
C5
100
AcDbEntity
  8
0
390
0
  6
Continuous
 62
     7
100
AcDbLine
 10
-110.599878
 20
-82.099833
 30
0.0
 11
-108.399878
 21
-82.099833
 31
0.0
  0
LINE
  5
C6
100
AcDbEntity
  8
0
390
0
  6
Continuous
 62
     7
100
AcDbLine
 10
103.875766
 20
-150.084605
 30
0.0
 11
106.500122
 21
-151.599833
 31
0.0
  0
LINE
  5
C7
100
AcDbEntity
  8
0
390
0
  6
Continuous
 62
     7
100
AcDbLine
 10
125.500122
 20
-151.599833
 30
0.0
 11
128.124477
 21
-150.084605
 31
0.0
  0
LINE
  5
C8
100
AcDbEntity
  8
0
390
0
  6
Continuous
 62
     7
100
AcDbLine
 10
-128.124234
 20
-150.084605
 30
0.0
 11
-125.499878
 21
-151.599833
 31
0.0
  0
LINE
  5
C9
100
AcDbEntity
  8
0
390
0
  6
Continuous
 62
     7
100
AcDbLine
 10
-106.499878
 20
-151.599833
 30
0.0
 11
-103.875523
 21
-150.084605
 31
0.0
  0
LINE
  5
CA
100
AcDbEntity
  8
0
390
0
  6
Continuous
 62
     7
100
AcDbLine
 10
109.750122
 20
-106.599833
 30
0.0
 11
109.750122
 21
-141.599833
 31
0.0
  0
LINE
  5
CB
100
AcDbEntity
  8
0
390
0
  6
Continuous
 62
     7
100
AcDbLine
 10
109.750122
 20
-151.599833
 30
0.0
 11
109.750122
 21
-171.599833
 31
0.0
  0
LINE
  5
CC
100
AcDbEntity
  8
0
390
0
  6
Continuous
 62
     7
100
AcDbLine
 10
122.250122
 20
-171.599833
 30
0.0
 11
122.250122
 21
-151.599833
 31
0.0
  0
LINE
  5
CD
100
AcDbEntity
  8
0
390
0
  6
Continuous
 62
     7
100
AcDbLine
 10
122.250122
 20
-141.599833
 30
0.0
 11
122.250122
 21
-106.599833
 31
0.0
  0
LINE
  5
CE
100
AcDbEntity
  8
0
390
0
  6
Continuous
 62
     7
100
AcDbLine
 10
-122.249878
 20
-106.599833
 30
0.0
 11
-122.249878
 21
-141.599833
 31
0.0
  0
LINE
  5
CF
100
AcDbEntity
  8
0
390
0
  6
Continuous
 62
     7
100
AcDbLine
 10
-122.249878
 20
-151.599833
 30
0.0
 11
-122.249878
 21
-171.599833
 31
0.0
  0
LINE
  5
D0
100
AcDbEntity
  8
0
390
0
  6
Continuous
 62
     7
100
AcDbLine
 10
-109.749878
 20
-171.599833
 30
0.0
 11
-109.749878
 21
-151.599833
 31
0.0
  0
LINE
  5
D1
100
AcDbEntity
  8
0
390
0
  6
Continuous
 62
     7
100
AcDbLine
 10
-109.749878
 20
-141.599833
 30
0.0
 11
-109.749878
 21
-106.599833
 31
0.0
  0
LINE
  5
D2
100
AcDbEntity
  8
0
390
0
  6
Continuous
 62
     7
100
AcDbLine
 10
-110.399878
 20
-106.599833
 30
0.0
 11
-110.399878
 21
-82.099833
 31
0.0
  0
LINE
  5
D3
100
AcDbEntity
  8
0
390
0
  6
Continuous
 62
     7
100
AcDbLine
 10
-121.599878
 20
-82.099833
 30
0.0
 11
-121.599878
 21
-106.599833
 31
0.0
  0
LINE
  5
D4
100
AcDbEntity
  8
0
390
0
  6
Continuous
 62
     7
100
AcDbLine
 10
121.600122
 20
-106.599833
 30
0.0
 11
121.600122
 21
-82.099833
 31
0.0
  0
LINE
  5
D5
100
AcDbEntity
  8
0
390
0
  6
Continuous
 62
     7
100
AcDbLine
 10
110.400122
 20
-82.099833
 30
0.0
 11
110.400122
 21
-106.599833
 31
0.0
  0
POLYLINE
  5
D6
100
AcDbEntity
  8
0
390
0
  6
Continuous
 62
     7
100
AcDb2dPolyline
 66
     1
 10
0.0
 20
0.0
 30
0.0
 40
0.1
 41
0.1
  0
VERTEX
  5
D7
100
AcDbEntity
  8
0
390
0
 62
     7
100
AcDbVertex
100
AcDb2dVertex
 10
123.800122
 20
-82.099833
 30
0.0
  0
VERTEX
  5
D8
100
AcDbEntity
  8
0
390
0
 62
     7
100
AcDbVertex
100
AcDb2dVertex
 10
123.800122
 20
-0.999321
 30
0.0
  0
VERTEX
  5
D9
100
AcDbEntity
  8
0
390
0
 62
     7
100
AcDbVertex
100
AcDb2dVertex
 10
123.798265
 20
0.674362
 30
0.0
 42
0.998228
  0
VERTEX
  5
DA
100
AcDbEntity
  8
0
390
0
 62
     7
100
AcDbVertex
100
AcDb2dVertex
 10
-123.799878
 20
-0.235228
 30
0.0
  0
VERTEX
  5
DB
100
AcDbEntity
  8
0
390
0
 62
     7
100
AcDbVertex
100
AcDb2dVertex
 10
-123.799878
 20
-82.099833
 30
0.0
  0
SEQEND
  5
DC
100
AcDbEntity
  8
0
390
0
  0
ARC
  5
DD
100
AcDbEntity
  8
0
390
0
  6
Continuous
 62
     7
100
AcDbCircle
 10
116.000122
 20
-322.155187
 30
0.0
 40
9.5
210
0.0
220
0.0
230
1.0
100
AcDbArc
 50
270.0
 51
90.0
  0
ARC
  5
DE
100
AcDbEntity
  8
0
390
0
  6
Continuous
 62
     7
100
AcDbCircle
 10
116.000122
 20
-322.155187
 30
0.0
 40
9.5
210
0.0
220
0.0
230
1.0
100
AcDbArc
 50
90.0
 51
270.0
  0
LINE
  5
DF
100
AcDbEntity
  8
0
390
0
  6
Continuous
 62
     7
100
AcDbLine
 10
122.062298
 20
-311.655187
 30
0.0
 11
116.000122
 21
-311.655187
 31
0.0
  0
ARC
  5
E0
100
AcDbEntity
  8
0
390
0
  6
Continuous
 62
     7
100
AcDbCircle
 10
116.000122
 20
-322.155187
 30
0.0
 40
9.5
210
0.0
220
0.0
230
1.0
100
AcDbArc
 50
270.0
 51
90.0
  0
ARC
  5
E1
100
AcDbEntity
  8
0
390
0
  6
Continuous
 62
     7
100
AcDbCircle
 10
116.000122
 20
-322.155187
 30
0.0
 40
9.5
210
0.0
220
0.0
230
1.0
100
AcDbArc
 50
90.0
 51
270.0
  0
LINE
  5
E2
100
AcDbEntity
  8
0
390
0
  6
Continuous
 62
     7
100
AcDbLine
 10
116.000122
 20
-311.655187
 30
0.0
 11
109.937945
 21
-311.655187
 31
0.0
  0
LINE
  5
E3
100
AcDbEntity
  8
0
390
0
  6
Continuous
 62
     7
100
AcDbLine
 10
109.937944
 20
-311.655187
 30
0.0
 11
103.875766
 21
-322.155186
 31
0.0
  0
LINE
  5
E4
100
AcDbEntity
  8
0
390
0
  6
Continuous
 62
     7
100
AcDbLine
 10
103.875766
 20
-322.155187
 30
0.0
 11
109.937943
 21
-332.655186
 31
0.0
  0
LINE
  5
E5
100
AcDbEntity
  8
0
390
0
  6
Continuous
 62
     7
100
AcDbLine
 10
109.937944
 20
-332.655187
 30
0.0
 11
122.062298
 21
-332.655187
 31
0.0
  0
LINE
  5
E6
100
AcDbEntity
  8
0
390
0
  6
Continuous
 62
     7
100
AcDbLine
 10
122.062299
 20
-332.655187
 30
0.0
 11
128.124477
 21
-322.155188
 31
0.0
  0
LINE
  5
E7
100
AcDbEntity
  8
0
390
0
  6
Continuous
 62
     7
100
AcDbLine
 10
128.124477
 20
-322.155187
 30
0.0
 11
122.062299
 21
-311.655187
 31
0.0
  0
LINE
  5
E8
100
AcDbEntity
  8
0
390
0
  6
Continuous
 62
     7
100
AcDbLine
 10
109.937944
 20
-311.655187
 30
0.0
 11
103.875766
 21
-322.155187
 31
0.0
  0
LINE
  5
E9
100
AcDbEntity
  8
0
390
0
  6
Continuous
 62
     7
100
AcDbLine
 10
103.875766
 20
-322.155187
 30
0.0
 11
109.937944
 21
-332.655187
 31
0.0
  0
LINE
  5
EA
100
AcDbEntity
  8
0
390
0
  6
Continuous
 62
     7
100
AcDbLine
 10
109.937944
 20
-332.655187
 30
0.0
 11
122.062299
 21
-332.655187
 31
0.0
  0
LINE
  5
EB
100
AcDbEntity
  8
0
390
0
  6
Continuous
 62
     7
100
AcDbLine
 10
122.062299
 20
-332.655187
 30
0.0
 11
128.124477
 21
-322.155187
 31
0.0
  0
LINE
  5
EC
100
AcDbEntity
  8
0
390
0
  6
Continuous
 62
     7
100
AcDbLine
 10
128.124477
 20
-322.155187
 30
0.0
 11
122.062299
 21
-311.655187
 31
0.0
  0
LINE
  5
ED
100
AcDbEntity
  8
0
390
0
  6
Continuous
 62
     7
100
AcDbLine
 10
122.062299
 20
-311.655187
 30
0.0
 11
116.09964
 21
-311.655187
 31
0.0
  0
LINE
  5
EE
100
AcDbEntity
  8
0
390
0
  6
Continuous
 62
     7
100
AcDbLine
 10
116.09964
 20
-311.655187
 30
0.0
 11
116.000136
 21
-311.655187
 31
0.0
  0
LINE
  5
EF
100
AcDbEntity
  8
0
390
0
  6
Continuous
 62
     7
100
AcDbLine
 10
116.000136
 20
-311.655187
 30
0.0
 11
115.900633
 21
-311.655187
 31
0.0
  0
LINE
  5
F0
100
AcDbEntity
  8
0
390
0
  6
Continuous
 62
     7
100
AcDbLine
 10
115.900633
 20
-311.655187
 30
0.0
 11
109.937944
 21
-311.655187
 31
0.0
  0
ARC
  5
F1
100
AcDbEntity
  8
0
390
0
  6
Continuous
 62
     7
100
AcDbCircle
 10
-115.999878
 20
-322.155187
 30
0.0
 40
9.5
210
0.0
220
0.0
230
1.0
100
AcDbArc
 50
270.0
 51
90.0
  0
ARC
  5
F2
100
AcDbEntity
  8
0
390
0
  6
Continuous
 62
     7
100
AcDbCircle
 10
-115.999878
 20
-322.155187
 30
0.0
 40
9.5
210
0.0
220
0.0
230
1.0
100
AcDbArc
 50
90.0
 51
270.0
  0
LINE
  5
F3
100
AcDbEntity
  8
0
390
0
  6
Continuous
 62
     7
100
AcDbLine
 10
-122.062056
 20
-332.655187
 30
0.0
 11
-109.937702
 21
-332.655187
 31
0.0
  0
LINE
  5
F4
100
AcDbEntity
  8
0
390
0
  6
Continuous
 62
     7
100
AcDbLine
 10
-128.124234
 20
-322.155187
 30
0.0
 11
-122.062057
 21
-332.655186
 31
0.0
  0
LINE
  5
F5
100
AcDbEntity
  8
0
390
0
  6
Continuous
 62
     7
100
AcDbLine
 10
-122.062056
 20
-311.655187
 30
0.0
 11
-128.124234
 21
-322.155186
 31
0.0
  0
LINE
  5
F6
100
AcDbEntity
  8
0
390
0
  6
Continuous
 62
     7
100
AcDbLine
 10
-115.999878
 20
-311.655187
 30
0.0
 11
-122.062055
 21
-311.655187
 31
0.0
  0
LINE
  5
F7
100
AcDbEntity
  8
0
390
0
  6
Continuous
 62
     7
100
AcDbLine
 10
-109.937702
 20
-311.655187
 30
0.0
 11
-115.999878
 21
-311.655187
 31
0.0
  0
LINE
  5
F8
100
AcDbEntity
  8
0
390
0
  6
Continuous
 62
     7
100
AcDbLine
 10
-103.875523
 20
-322.155187
 30
0.0
 11
-109.937701
 21
-311.655187
 31
0.0
  0
LINE
  5
F9
100
AcDbEntity
  8
0
390
0
  6
Continuous
 62
     7
100
AcDbLine
 10
-109.937701
 20
-332.655187
 30
0.0
 11
-103.875523
 21
-322.155188
 31
0.0
  0
ARC
  5
FA
100
AcDbEntity
  8
0
390
0
  6
Continuous
 62
     7
100
AcDbCircle
 10
-115.999878
 20
-322.155187
 30
0.0
 40
9.5
210
0.0
220
0.0
230
1.0
100
AcDbArc
 50
270.0
 51
90.0
  0
ARC
  5
FB
100
AcDbEntity
  8
0
390
0
  6
Continuous
 62
     7
100
AcDbCircle
 10
-115.999878
 20
-322.155187
 30
0.0
 40
9.5
210
0.0
220
0.0
230
1.0
100
AcDbArc
 50
90.0
 51
270.0
  0
LINE
  5
FC
100
AcDbEntity
  8
0
390
0
  6
Continuous
 62
     7
100
AcDbLine
 10
-122.062056
 20
-311.655187
 30
0.0
 11
-128.124234
 21
-322.155187
 31
0.0
  0
LINE
  5
FD
100
AcDbEntity
  8
0
390
0
  6
Continuous
 62
     7
100
AcDbLine
 10
-128.124234
 20
-322.155187
 30
0.0
 11
-122.062056
 21
-332.655187
 31
0.0
  0
LINE
  5
FE
100
AcDbEntity
  8
0
390
0
  6
Continuous
 62
     7
100
AcDbLine
 10
-122.062056
 20
-332.655187
 30
0.0
 11
-109.937701
 21
-332.655187
 31
0.0
  0
LINE
  5
FF
100
AcDbEntity
  8
0
390
0
  6
Continuous
 62
     7
100
AcDbLine
 10
-109.937701
 20
-332.655187
 30
0.0
 11
-103.875523
 21
-322.155187
 31
0.0
  0
LINE
  5
100
100
AcDbEntity
  8
0
390
0
  6
Continuous
 62
     7
100
AcDbLine
 10
-103.875523
 20
-322.155187
 30
0.0
 11
-109.937701
 21
-311.655187
 31
0.0
  0
LINE
  5
101
100
AcDbEntity
  8
0
390
0
  6
Continuous
 62
     7
100
AcDbLine
 10
-109.937701
 20
-311.655187
 30
0.0
 11
-115.90036
 21
-311.655187
 31
0.0
  0
LINE
  5
102
100
AcDbEntity
  8
0
390
0
  6
Continuous
 62
     7
100
AcDbLine
 10
-115.90036
 20
-311.655187
 30
0.0
 11
-115.999864
 21
-311.655187
 31
0.0
  0
LINE
  5
103
100
AcDbEntity
  8
0
390
0
  6
Continuous
 62
     7
100
AcDbLine
 10
-115.999864
 20
-311.655187
 30
0.0
 11
-116.099367
 21
-311.655187
 31
0.0
  0
LINE
  5
104
100
AcDbEntity
  8
0
390
0
  6
Continuous
 62
     7
100
AcDbLine
 10
-116.099367
 20
-311.655187
 30
0.0
 11
-122.062056
 21
-311.655187
 31
0.0
  0
CIRCLE
  5
105
100
AcDbEntity
  8
0
390
0
  6
Continuous
 62
     7
100
AcDbCircle
 10
116.000122
 20
-322.150571
 30
0.0
 40
6.250002
210
0.0
220
0.0
230
1.0
  0
LINE
  5
106
100
AcDbEntity
  8
0
390
0
  6
Continuous
 62
     7
100
AcDbLine
 10
109.750122
 20
-322.155187
 30
0.0
 11
109.755382
 21
-321.898801
 31
0.0
  0
ARC
  5
107
100
AcDbEntity
  8
0
390
0
  6
Continuous
 62
     7
100
AcDbCircle
 10
116.000122
 20
-322.155187
 30
0.0
 40
6.25
210
0.0
220
0.0
230
1.0
100
AcDbArc
 50
180.0
 51
177.648964
  0
CIRCLE
  5
108
100
AcDbEntity
  8
0
390
0
  6
Continuous
 62
     7
100
AcDbCircle
 10
-115.999696
 20
-322.150574
 30
0.0
 40
6.250184
210
0.0
220
0.0
230
1.0
  0
LINE
  5
109
100
AcDbEntity
  8
0
390
0
  6
Continuous
 62
     7
100
AcDbLine
 10
-122.249878
 20
-322.155187
 30
0.0
 11
-122.231503
 21
-321.676272
 31
0.0
  0
ARC
  5
10A
100
AcDbEntity
  8
0
390
0
  6
Continuous
 62
     7
100
AcDbCircle
 10
-115.999878
 20
-322.155187
 30
0.0
 40
6.25
210
0.0
220
0.0
230
1.0
100
AcDbArc
 50
180.0
 51
175.605325
  0
LINE
  5
10B
100
AcDbEntity
  8
0
390
0
  6
Continuous
 62
     7
100
AcDbLine
 10
-108.399878
 20
-307.155187
 30
0.0
 11
-108.399878
 21
-314.318773
 31
0.0
  0
LINE
  5
10C
100
AcDbEntity
  8
0
390
0
  6
Continuous
 62
     7
100
AcDbLine
 10
-108.399878
 20
-329.991601
 30
0.0
 11
-108.399878
 21
-337.155187
 31
0.0
  0
LINE
  5
10D
100
AcDbEntity
  8
0
390
0
  6
Continuous
 62
     7
100
AcDbLine
 10
108.400122
 20
-307.155187
 30
0.0
 11
-108.399878
 21
-307.155187
 31
0.0
  0
LINE
  5
10E
100
AcDbEntity
  8
0
390
0
  6
Continuous
 62
     7
100
AcDbLine
 10
108.400122
 20
-337.155187
 30
0.0
 11
108.400122
 21
-329.991601
 31
0.0
  0
LINE
  5
10F
100
AcDbEntity
  8
0
390
0
  6
Continuous
 62
     7
100
AcDbLine
 10
108.400122
 20
-314.318773
 30
0.0
 11
108.400122
 21
-307.155187
 31
0.0
  0
LINE
  5
110
100
AcDbEntity
  8
0
390
0
  6
Continuous
 62
     7
100
AcDbLine
 10
-108.399878
 20
-337.155187
 30
0.0
 11
108.400122
 21
-337.155187
 31
0.0
  0
LINE
  5
111
100
AcDbEntity
  8
0
390
0
  6
Continuous
 62
     7
100
AcDbLine
 10
-110.599878
 20
-307.155187
 30
0.0
 11
-110.599878
 21
-311.655187
 31
0.0
  0
LINE
  5
112
100
AcDbEntity
  8
0
390
0
  6
Continuous
 62
     7
100
AcDbLine
 10
-110.599878
 20
-332.655187
 30
0.0
 11
-110.599878
 21
-337.155187
 31
0.0
  0
LINE
  5
113
100
AcDbEntity
  8
0
390
0
  6
Continuous
 62
     7
100
AcDbLine
 10
110.600122
 20
-337.155187
 30
0.0
 11
110.600122
 21
-332.655187
 31
0.0
  0
LINE
  5
114
100
AcDbEntity
  8
0
390
0
  6
Continuous
 62
     7
100
AcDbLine
 10
110.600122
 20
-311.655187
 30
0.0
 11
110.600122
 21
-307.155187
 31
0.0
  0
LINE
  5
115
100
AcDbEntity
  8
0
390
0
  6
Continuous
 62
     7
100
AcDbLine
 10
108.400122
 20
-337.155187
 30
0.0
 11
110.600122
 21
-337.155187
 31
0.0
  0
LINE
  5
116
100
AcDbEntity
  8
0
390
0
  6
Continuous
 62
     7
100
AcDbLine
 10
-108.399871
 20
-337.155187
 30
0.0
 11
108.400122
 21
-337.155187
 31
0.0
  0
LINE
  5
117
100
AcDbEntity
  8
0
390
0
  6
Continuous
 62
     7
100
AcDbLine
 10
-110.599878
 20
-337.155187
 30
0.0
 11
-108.399878
 21
-337.155187
 31
0.0
  0
LINE
  5
118
100
AcDbEntity
  8
0
390
0
  6
Continuous
 62
     7
100
AcDbLine
 10
-108.399871
 20
-307.155187
 30
0.0
 11
108.400122
 21
-307.155187
 31
0.0
  0
LINE
  5
119
100
AcDbEntity
  8
0
390
0
  6
Continuous
 62
     7
100
AcDbLine
 10
-110.599878
 20
-307.155187
 30
0.0
 11
-108.399878
 21
-307.155187
 31
0.0
  0
LINE
  5
11A
100
AcDbEntity
  8
0
390
0
  6
Continuous
 62
     7
100
AcDbLine
 10
108.400122
 20
-307.155187
 30
0.0
 11
110.600122
 21
-307.155187
 31
0.0
  0
LINE
  5
11B
100
AcDbEntity
  8
0
390
0
  6
Continuous
 62
     7
100
AcDbLine
 10
110.600122
 20
-307.155187
 30
0.0
 11
110.600122
 21
-311.655187
 31
0.0
  0
LINE
  5
11C
100
AcDbEntity
  8
0
390
0
  6
Continuous
 62
     7
100
AcDbLine
 10
110.599968
 20
-332.655187
 30
0.0
 11
110.600122
 21
-337.155187
 31
0.0
  0
LINE
  5
11D
100
AcDbEntity
  8
0
390
0
  6
Continuous
 62
     7
100
AcDbLine
 10
108.400122
 20
-307.155187
 30
0.0
 11
110.600122
 21
-307.155187
 31
0.0
  0
LINE
  5
11E
100
AcDbEntity
  8
0
390
0
  6
Continuous
 62
     7
100
AcDbLine
 10
108.400122
 20
-337.155187
 30
0.0
 11
108.400122
 21
-329.991601
 31
0.0
  0
LINE
  5
11F
100
AcDbEntity
  8
0
390
0
  6
Continuous
 62
     7
100
AcDbLine
 10
108.400122
 20
-314.318773
 30
0.0
 11
108.400122
 21
-307.155187
 31
0.0
  0
LINE
  5
120
100
AcDbEntity
  8
0
390
0
  6
Continuous
 62
     7
100
AcDbLine
 10
110.600122
 20
-337.155187
 30
0.0
 11
108.400122
 21
-337.155187
 31
0.0
  0
LINE
  5
121
100
AcDbEntity
  8
0
390
0
  6
Continuous
 62
     7
100
AcDbLine
 10
-110.599878
 20
-337.155187
 30
0.0
 11
-110.599878
 21
-332.655187
 31
0.0
  0
LINE
  5
122
100
AcDbEntity
  8
0
390
0
  6
Continuous
 62
     7
100
AcDbLine
 10
-110.599724
 20
-311.655187
 30
0.0
 11
-110.599878
 21
-307.155187
 31
0.0
  0
LINE
  5
123
100
AcDbEntity
  8
0
390
0
  6
Continuous
 62
     7
100
AcDbLine
 10
-108.399878
 20
-337.155187
 30
0.0
 11
-110.599878
 21
-337.155187
 31
0.0
  0
LINE
  5
124
100
AcDbEntity
  8
0
390
0
  6
Continuous
 62
     7
100
AcDbLine
 10
-108.399878
 20
-307.155187
 30
0.0
 11
-108.399878
 21
-314.318773
 31
0.0
  0
LINE
  5
125
100
AcDbEntity
  8
0
390
0
  6
Continuous
 62
     7
100
AcDbLine
 10
-108.399878
 20
-329.991601
 30
0.0
 11
-108.399878
 21
-337.155187
 31
0.0
  0
LINE
  5
126
100
AcDbEntity
  8
0
390
0
  6
Continuous
 62
     7
100
AcDbLine
 10
-110.599878
 20
-307.155187
 30
0.0
 11
-108.399878
 21
-307.155187
 31
0.0
  0
LINE
  5
127
100
AcDbEntity
  8
0
390
0
  6
Continuous
 62
     7
100
AcDbLine
 10
372.310113
 20
-151.599833
 30
0.0
 11
391.310113
 21
-151.599833
 31
0.0
  0
LINE
  5
128
100
AcDbEntity
  8
0
390
0
  6
Continuous
 62
     7
100
AcDbLine
 10
392.310113
 20
-151.022462
 30
0.0
 11
392.310113
 21
-150.084605
 31
0.0
  0
LINE
  5
129
100
AcDbEntity
  8
0
390
0
  6
Continuous
 62
     7
100
AcDbLine
 10
371.310113
 20
-150.084605
 30
0.0
 11
371.310113
 21
-150.767541
 31
0.0
  0
LINE
  5
12A
100
AcDbEntity
  8
0
390
0
  6
Continuous
 62
     7
100
AcDbLine
 10
371.310113
 20
-150.767541
 30
0.0
 11
371.310113
 21
-151.022462
 31
0.0
  0
LINE
  5
12B
100
AcDbEntity
  8
0
390
0
  6
Continuous
 62
     7
100
AcDbLine
 10
372.310113
 20
-151.599833
 30
0.0
 11
391.310113
 21
-151.599833
 31
0.0
  0
ARC
  5
12C
100
AcDbEntity
  8
0
390
0
  6
Continuous
 62
     7
100
AcDbCircle
 10
387.094638
 20
-135.985865
 30
0.0
 40
15.032487
210
0.0
220
0.0
230
1.0
100
AcDbArc
 50
253.016759
 51
290.30069
  0
LINE
  5
12D
100
AcDbEntity
  8
0
390
0
  6
Continuous
 62
     7
100
AcDbLine
 10
382.703769
 20
-150.362789
 30
0.0
 11
381.810114
 21
-150.084605
 31
0.0
  0
ARC
  5
12E
100
AcDbEntity
  8
0
390
0
  6
Continuous
 62
     7
100
AcDbCircle
 10
376.560113
 20
-135.859116
 30
0.0
 40
15.163345
210
0.0
220
0.0
230
1.0
100
AcDbArc
 50
249.743122
 51
290.256878
  0
LINE
  5
12F
100
AcDbEntity
  8
0
390
0
  6
Continuous
 62
     7
100
AcDbLine
 10
381.810113
 20
-141.599833
 30
0.0
 11
392.310113
 21
-141.599833
 31
0.0
  0
LINE
  5
130
100
AcDbEntity
  8
0
390
0
  6
Continuous
 62
     7
100
AcDbLine
 10
371.310113
 20
-141.599833
 30
0.0
 11
381.810113
 21
-141.599833
 31
0.0
  0
LINE
  5
131
100
AcDbEntity
  8
0
390
0
  6
Continuous
 62
     7
100
AcDbLine
 10
392.310113
 20
-151.022461
 30
0.0
 11
392.310113
 21
-150.772105
 31
0.0
  0
LINE
  5
132
100
AcDbEntity
  8
0
390
0
  6
Continuous
 62
     7
100
AcDbLine
 10
392.310113
 20
-150.772105
 30
0.0
 11
392.310113
 21
-150.084605
 31
0.0
  0
LINE
  5
133
100
AcDbEntity
  8
0
390
0
  6
Continuous
 62
     7
100
AcDbLine
 10
392.310113
 20
-150.084605
 30
0.0
 11
392.310113
 21
-141.599833
 31
0.0
  0
LINE
  5
134
100
AcDbEntity
  8
0
390
0
  6
Continuous
 62
     7
100
AcDbLine
 10
392.310113
 20
-141.599833
 30
0.0
 11
392.310113
 21
-150.084605
 31
0.0
  0
LINE
  5
135
100
AcDbEntity
  8
0
390
0
  6
Continuous
 62
     7
100
AcDbLine
 10
381.810113
 20
-141.599833
 30
0.0
 11
392.310113
 21
-141.599833
 31
0.0
  0
LINE
  5
136
100
AcDbEntity
  8
0
390
0
  6
Continuous
 62
     7
100
AcDbLine
 10
381.810113
 20
-150.084605
 30
0.0
 11
381.810113
 21
-141.599833
 31
0.0
  0
ARC
  5
137
100
AcDbEntity
  8
0
390
0
  6
Continuous
 62
     7
100
AcDbCircle
 10
387.097442
 20
-136.068475
 30
0.0
 40
14.954058
210
0.0
220
0.0
230
0.9999999999999999
100
AcDbArc
 50
252.91329
 51
290.40043
  0
LINE
  5
138
100
AcDbEntity
  8
0
390
0
  6
Continuous
 62
     7
100
AcDbLine
 10
382.703661
 20
-150.362479
 30
0.0
 11
381.810113
 21
-150.084605
 31
0.0
  0
LINE
  5
139
100
AcDbEntity
  8
0
390
0
  6
Continuous
 62
     7
100
AcDbLine
 10
371.310113
 20
-141.599833
 30
0.0
 11
381.810113
 21
-141.599833
 31
0.0
  0
LINE
  5
13A
100
AcDbEntity
  8
0
390
0
  6
Continuous
 62
     7
100
AcDbLine
 10
381.810113
 20
-141.599833
 30
0.0
 11
381.810113
 21
-150.084605
 31
0.0
  0
ARC
  5
13B
100
AcDbEntity
  8
0
390
0
  6
Continuous
 62
     7
100
AcDbCircle
 10
376.560113
 20
-135.859116
 30
0.0
 40
15.163345
210
0.0
220
0.0
230
1.0
100
AcDbArc
 50
249.743122
 51
290.256878
  0
LINE
  5
13C
100
AcDbEntity
  8
0
390
0
  6
Continuous
 62
     7
100
AcDbLine
 10
371.310113
 20
-150.084605
 30
0.0
 11
371.310113
 21
-141.599833
 31
0.0
  0
LINE
  5
13D
100
AcDbEntity
  8
0
390
0
  6
Continuous
 62
     7
100
AcDbLine
 10
371.310113
 20
-141.599833
 30
0.0
 11
371.310113
 21
-150.084605
 31
0.0
  0
LINE
  5
13E
100
AcDbEntity
  8
0
390
0
  6
Continuous
 62
     7
100
AcDbLine
 10
371.310113
 20
-150.084605
 30
0.0
 11
371.310113
 21
-150.767573
 31
0.0
  0
LINE
  5
13F
100
AcDbEntity
  8
0
390
0
  6
Continuous
 62
     7
100
AcDbLine
 10
371.310113
 20
-150.767573
 30
0.0
 11
371.310113
 21
-151.022462
 31
0.0
  0
LINE
  5
140
100
AcDbEntity
  8
0
390
0
  6
Continuous
 62
     7
100
AcDbLine
 10
388.060113
 20
-171.599833
 30
0.0
 11
381.885132
 21
-171.599833
 31
0.0
  0
LINE
  5
141
100
AcDbEntity
  8
0
390
0
  6
Continuous
 62
     7
100
AcDbLine
 10
381.885132
 20
-171.599833
 30
0.0
 11
381.735094
 21
-171.599833
 31
0.0
  0
LINE
  5
142
100
AcDbEntity
  8
0
390
0
  6
Continuous
 62
     7
100
AcDbLine
 10
381.735094
 20
-171.599833
 30
0.0
 11
375.560113
 21
-171.599833
 31
0.0
  0
LINE
  5
143
100
AcDbEntity
  8
0
390
0
  6
Continuous
 62
     7
100
AcDbLine
 10
388.060113
 20
-106.599833
 30
0.0
 11
381.91044
 21
-106.599833
 31
0.0
  0
LINE
  5
144
100
AcDbEntity
  8
0
390
0
  6
Continuous
 62
     7
100
AcDbLine
 10
381.91044
 20
-106.599833
 30
0.0
 11
381.709843
 21
-106.599833
 31
0.0
  0
LINE
  5
145
100
AcDbEntity
  8
0
390
0
  6
Continuous
 62
     7
100
AcDbLine
 10
381.709843
 20
-106.599833
 30
0.0
 11
375.560113
 21
-106.599833
 31
0.0
  0
LINE
  5
146
100
AcDbEntity
  8
0
390
0
  6
Continuous
 62
     7
100
AcDbLine
 10
388.060113
 20
-106.599833
 30
0.0
 11
381.736331
 21
-106.599833
 31
0.0
  0
LINE
  5
147
100
AcDbEntity
  8
0
390
0
  6
Continuous
 62
     7
100
AcDbLine
 10
381.736331
 20
-106.599833
 30
0.0
 11
375.560113
 21
-106.599833
 31
0.0
  0
LINE
  5
148
100
AcDbEntity
  8
0
390
0
  6
Continuous
 62
     7
100
AcDbLine
 10
375.560113
 20
-171.599833
 30
0.0
 11
375.560224
 21
-171.599833
 31
0.0
  0
LINE
  5
149
100
AcDbEntity
  8
0
390
0
  6
Continuous
 62
     7
100
AcDbLine
 10
375.560224
 20
-171.599833
 30
0.0
 11
381.736229
 21
-171.599833
 31
0.0
  0
LINE
  5
14A
100
AcDbEntity
  8
0
390
0
  6
Continuous
 62
     7
100
AcDbLine
 10
381.736229
 20
-171.599833
 30
0.0
 11
381.883905
 21
-171.599833
 31
0.0
  0
LINE
  5
14B
100
AcDbEntity
  8
0
390
0
  6
Continuous
 62
     7
100
AcDbLine
 10
381.883905
 20
-171.599833
 30
0.0
 11
388.060113
 21
-171.599833
 31
0.0
  0
LINE
  5
14C
100
AcDbEntity
  8
0
390
0
  6
Continuous
 62
     7
100
AcDbLine
 10
396.810113
 20
110.600167
 30
0.0
 11
396.810113
 21
-82.099833
 31
0.0
  0
LINE
  5
14D
100
AcDbEntity
  8
0
390
0
  6
Continuous
 62
     7
100
AcDbLine
 10
366.810113
 20
-82.099833
 30
0.0
 11
366.810113
 21
110.600167
 31
0.0
  0
LINE
  5
14E
100
AcDbEntity
  8
0
390
0
  6
Continuous
 62
     7
100
AcDbLine
 10
396.810113
 20
-82.099833
 30
0.0
 11
389.653833
 21
-82.099833
 31
0.0
  0
LINE
  5
14F
100
AcDbEntity
  8
0
390
0
  6
Continuous
 62
     7
100
AcDbLine
 10
389.653833
 20
-82.099833
 30
0.0
 11
389.610113
 21
-82.099833
 31
0.0
  0
LINE
  5
150
100
AcDbEntity
  8
0
390
0
  6
Continuous
 62
     7
100
AcDbLine
 10
389.610113
 20
-82.099833
 30
0.0
 11
374.010113
 21
-82.099833
 31
0.0
  0
LINE
  5
151
100
AcDbEntity
  8
0
390
0
  6
Continuous
 62
     7
100
AcDbLine
 10
374.010113
 20
-82.099833
 30
0.0
 11
366.810113
 21
-82.099833
 31
0.0
  0
LINE
  5
152
100
AcDbEntity
  8
0
390
0
  6
Continuous
 62
     7
100
AcDbLine
 10
396.810113
 20
-82.099833
 30
0.0
 11
396.810113
 21
110.600167
 31
0.0
  0
LINE
  5
153
100
AcDbEntity
  8
0
390
0
  6
Continuous
 62
     7
100
AcDbLine
 10
366.810113
 20
-82.099833
 30
0.0
 11
366.810113
 21
110.600167
 31
0.0
  0
LINE
  5
154
100
AcDbEntity
  8
0
390
0
  6
Continuous
 62
     7
100
AcDbLine
 10
366.810113
 20
-82.099833
 30
0.0
 11
373.942217
 21
-82.099833
 31
0.0
  0
LINE
  5
155
100
AcDbEntity
  8
0
390
0
  6
Continuous
 62
     7
100
AcDbLine
 10
373.942217
 20
-82.099833
 30
0.0
 11
373.950597
 21
-82.099833
 31
0.0
  0
LINE
  5
156
100
AcDbEntity
  8
0
390
0
  6
Continuous
 62
     7
100
AcDbLine
 10
373.950597
 20
-82.099833
 30
0.0
 11
374.010326
 21
-82.099833
 31
0.0
  0
LINE
  5
157
100
AcDbEntity
  8
0
390
0
  6
Continuous
 62
     7
100
AcDbLine
 10
374.010113
 20
-82.099833
 30
0.0
 11
389.681983
 21
-82.099833
 31
0.0
  0
LINE
  5
158
100
AcDbEntity
  8
0
390
0
  6
Continuous
 62
     7
100
AcDbLine
 10
389.681983
 20
-82.099833
 30
0.0
 11
389.726666
 21
-82.099833
 31
0.0
  0
LINE
  5
159
100
AcDbEntity
  8
0
390
0
  6
Continuous
 62
     7
100
AcDbLine
 10
389.726666
 20
-82.099833
 30
0.0
 11
396.810113
 21
-82.099833
 31
0.0
  0
LINE
  5
15A
100
AcDbEntity
  8
0
390
0
  6
Continuous
 62
     7
100
AcDbLine
 10
371.310113
 20
-151.022462
 30
0.0
 11
372.310113
 21
-151.599833
 31
0.0
  0
LINE
  5
15B
100
AcDbEntity
  8
0
390
0
  6
Continuous
 62
     7
100
AcDbLine
 10
391.310113
 20
-151.599833
 30
0.0
 11
392.310138
 21
-151.022447
 31
0.0
  0
LINE
  5
15C
100
AcDbEntity
  8
0
390
0
  6
Continuous
 62
     7
100
AcDbLine
 10
375.560113
 20
-106.599833
 30
0.0
 11
375.560113
 21
-141.599833
 31
0.0
  0
LINE
  5
15D
100
AcDbEntity
  8
0
390
0
  6
Continuous
 62
     7
100
AcDbLine
 10
375.560113
 20
-151.599833
 30
0.0
 11
375.560113
 21
-171.599833
 31
0.0
  0
LINE
  5
15E
100
AcDbEntity
  8
0
390
0
  6
Continuous
 62
     7
100
AcDbLine
 10
388.060113
 20
-171.599833
 30
0.0
 11
388.060113
 21
-151.599833
 31
0.0
  0
LINE
  5
15F
100
AcDbEntity
  8
0
390
0
  6
Continuous
 62
     7
100
AcDbLine
 10
388.060113
 20
-141.599833
 30
0.0
 11
388.060113
 21
-106.599833
 31
0.0
  0
LINE
  5
160
100
AcDbEntity
  8
0
390
0
  6
Continuous
 62
     7
100
AcDbLine
 10
387.410113
 20
-106.599833
 30
0.0
 11
387.410113
 21
-82.099833
 31
0.0
  0
LINE
  5
161
100
AcDbEntity
  8
0
390
0
  6
Continuous
 62
     7
100
AcDbLine
 10
376.210113
 20
-82.099833
 30
0.0
 11
376.210113
 21
-106.599833
 31
0.0
  0
POINT
  5
162
100
AcDbEntity
  8
0
390
0
 62
     7
100
AcDbPoint
 10
0.0
 20
0.0
 30
0.0
  0
POINT
  5
163
100
AcDbEntity
  8
0
390
0
 62
     7
100
AcDbPoint
 10
0.0
 20
0.0
 30
0.0
  0
LINE
  5
164
100
AcDbEntity
  8
0
390
0
  6
Continuous
 62
     7
100
AcDbLine
 10
366.810113
 20
110.600167
 30
0.0
 11
372.010113
 21
110.600167
 31
0.0
  0
ARC
  5
165
100
AcDbEntity
  8
0
390
0
  6
Continuous
 62
     7
100
AcDbCircle
 10
372.010114
 20
112.600166
 30
0.0
 40
1.999999
210
0.0
220
0.0
230
1.0
100
AcDbArc
 50
269.999957
 51
0.000043
  0
LINE
  5
166
100
AcDbEntity
  8
0
390
0
  6
Continuous
 62
     7
100
AcDbLine
 10
374.010113
 20
-82.099833
 30
0.0
 11
374.010113
 21
116.000102
 31
0.0
  0
ARC
  5
167
100
AcDbEntity
  8
0
390
0
  6
Continuous
 62
     7
100
AcDbCircle
 10
381.810113
 20
116.000102
 30
0.0
 40
7.8
210
0.0
220
0.0
230
1.0
100
AcDbArc
 50
360.0
 51
180.0
  0
LINE
  5
168
100
AcDbEntity
  8
0
390
0
  6
Continuous
 62
     7
100
AcDbLine
 10
389.610113
 20
116.000102
 30
0.0
 11
389.610113
 21
-82.099833
 31
0.0
  0
ARC
  5
169
100
AcDbEntity
  8
0
390
0
  6
Continuous
 62
     7
100
AcDbCircle
 10
391.610112
 20
112.600166
 30
0.0
 40
1.999999
210
0.0
220
0.0
230
1.0
100
AcDbArc
 50
179.999957
 51
270.000043
  0
LINE
  5
16A
100
AcDbEntity
  8
0
390
0
  6
Continuous
 62
     7
100
AcDbLine
 10
391.610113
 20
110.600167
 30
0.0
 11
396.810113
 21
110.600167
 31
0.0
  0
ENDSEC
  0
SECTION
  2
OBJECTS
  0
DICTIONARY
  5
19
100
AcDbDictionary
280
     0
281
     1
  3
ACAD_GROUP
350
1A
  3
ACAD_MLINESTYLE
350
1B
  3
ACAD_LAYOUT
350
1E
  3
ACAD_PLOTSETTINGS
350
22
  3
ACAD_PLOTSTYLENAME
350
1F
  3
ACAD_WIPEOUT_VARS
350
23
  0
DICTIONARY
  5
1A
102
{ACAD_REACTORS
330
19
102
}
100
AcDbDictionary
280
     0
281
     1
  0
DICTIONARY
  5
1B
102
{ACAD_REACTORS
330
19
102
}
100
AcDbDictionary
280
     0
281
     1
  3
Standard
350
1C
  0
MLINESTYLE
  5
1C
102
{ACAD_REACTORS
330
1B
102
}
100
AcDbMlineStyle
  2
Standard
 70
     0
  3

 62
     0
 51
90.0
 52
90.0
 71
     2
 49
0.5
 62
   256
  6
ByLayer
 49
-0.5
 62
   256
  6
ByLayer
  0
ACDBDICTIONARYWDFLT
  5
1F
102
{ACAD_REACTORS
330
19
102
}
100
AcDbDictionary
281
     1
  3
Normal
350
1D
100
AcDbDictionaryWithDefault
340
1D
  0
ACDBPLACEHOLDER
  5
1D
102
{ACAD_REACTORS
330
1F
102
}
  0
LAYOUT
  5
20
102
{ACAD_REACTORS
330
1E
102
}
100
AcDbPlotSettings
  1

  2

  4

  6

 40
0.0
 41
0.0
 42
0.0
 43
0.0
 44
0.0
 45
0.0
 46
0.0
 47
0.0
 48
0.0
 49
0.0
140
0.0
141
0.0
142
1.0
143
1.0
 70
  1024
 72
     0
 73
     0
 74
     0
  7

 75
     0
147
1.0
148
0.0
149
0.0
100
AcDbLayout
  1
Model
 70
     0
 71
     1
 10
0.0
 20
0.0
 11
0.0
 21
0.0
 12
0.0
 22
0.0
 32
0.0
 14
0.0
 24
0.0
 34
0.0
 15
0.0
 25
0.0
 35
0.0
146
0.0
 13
0.0
 23
0.0
 33
0.0
 16
0.0
 26
0.0
 36
0.0
 17
0.0
 27
0.0
 37
0.0
 76
     0
330
A
331
0
345
0
346
0
  0
LAYOUT
  5
21
102
{ACAD_REACTORS
330
1E
102
}
100
AcDbPlotSettings
  1

  2

  4

  6

 40
0.0
 41
0.0
 42
0.0
 43
0.0
 44
0.0
 45
0.0
 46
0.0
 47
0.0
 48
0.0
 49
0.0
140
0.0
141
0.0
142
1.0
143
1.0
 70
     0
 72
     0
 73
     0
 74
     0
  7

 75
     0
147
1.0
148
0.0
149
0.0
100
AcDbLayout
  1
Layout1
 70
     0
 71
     2
 10
0.0
 20
0.0
 11
0.0
 21
0.0
 12
0.0
 22
0.0
 32
0.0
 14
0.0
 24
0.0
 34
0.0
 15
0.0
 25
0.0
 35
0.0
146
0.0
 13
0.0
 23
0.0
 33
0.0
 16
0.0
 26
0.0
 36
0.0
 17
0.0
 27
0.0
 37
0.0
 76
     0
330
B
331
0
345
0
346
0
  0
DICTIONARY
  5
1E
102
{ACAD_REACTORS
330
19
102
}
100
AcDbDictionary
280
     0
281
     1
  3
Layout1
350
21
  3
Model
350
20
  0
DICTIONARY
  5
22
102
{ACAD_REACTORS
330
19
102
}
100
AcDbDictionary
280
     0
281
     1
  0
WIPEOUTVARIABLES
  5
23
100
AcDbWipeoutVariables
 70
     1
  0
ENDSEC
  0
EOF
